  0
SECTION
  2
HEADER
  9
$ACADVER
  1
AC1015
  9
$ACADMAINTVER
 70
    18
  9
$DWGCODEPAGE
  3
ANSI_1252
  9
$INSBASE
 10
0.0
 20
0.0
 30
0.0
  9
$EXTMIN
 10
-5.588377934867025
 20
-72.85871826538198
 30
-0.0015258207003583
  9
$EXTMAX
 10
17.7713017791641
 20
0.0135959268239958
 30
0.0000000349246037
  9
$LIMMIN
 10
0.0
 20
0.0
  9
$LIMMAX
 10
420.0
 20
297.0
  9
$ORTHOMODE
 70
     0
  9
$REGENMODE
 70
     1
  9
$FILLMODE
 70
     1
  9
$QTEXTMODE
 70
     0
  9
$MIRRTEXT
 70
     0
  9
$LTSCALE
 40
1.0
  9
$ATTMODE
 70
     1
  9
$TEXTSIZE
 40
2.5
  9
$TRACEWID
 40
1.0
  9
$TEXTSTYLE
  7
Standard
  9
$CLAYER
  8
0
  9
$CELTYPE
  6
ByLayer
  9
$CECOLOR
 62
   256
  9
$CELTSCALE
 40
1.0
  9
$DISPSILH
 70
     0
  9
$DIMSCALE
 40
1.0
  9
$DIMASZ
 40
2.5
  9
$DIMEXO
 40
0.625
  9
$DIMDLI
 40
3.75
  9
$DIMRND
 40
0.0
  9
$DIMDLE
 40
0.0
  9
$DIMEXE
 40
1.25
  9
$DIMTP
 40
0.0
  9
$DIMTM
 40
0.0
  9
$DIMTXT
 40
2.5
  9
$DIMCEN
 40
2.5
  9
$DIMTSZ
 40
0.0
  9
$DIMTOL
 70
     0
  9
$DIMLIM
 70
     0
  9
$DIMTIH
 70
     0
  9
$DIMTOH
 70
     0
  9
$DIMSE1
 70
     0
  9
$DIMSE2
 70
     0
  9
$DIMTAD
 70
     1
  9
$DIMZIN
 70
     8
  9
$DIMBLK
  1

  9
$DIMASO
 70
     1
  9
$DIMSHO
 70
     1
  9
$DIMPOST
  1

  9
$DIMAPOST
  1

  9
$DIMALT
 70
     0
  9
$DIMALTD
 70
     3
  9
$DIMALTF
 40
0.03937007874016
  9
$DIMLFAC
 40
1.0
  9
$DIMTOFL
 70
     1
  9
$DIMTVP
 40
0.0
  9
$DIMTIX
 70
     0
  9
$DIMSOXD
 70
     0
  9
$DIMSAH
 70
     0
  9
$DIMBLK1
  1

  9
$DIMBLK2
  1

  9
$DIMSTYLE
  2
ISO-25
  9
$DIMCLRD
 70
     0
  9
$DIMCLRE
 70
     0
  9
$DIMCLRT
 70
     0
  9
$DIMTFAC
 40
1.0
  9
$DIMGAP
 40
0.625
  9
$DIMJUST
 70
     0
  9
$DIMSD1
 70
     0
  9
$DIMSD2
 70
     0
  9
$DIMTOLJ
 70
     0
  9
$DIMTZIN
 70
     8
  9
$DIMALTZ
 70
     0
  9
$DIMALTTZ
 70
     0
  9
$DIMUPT
 70
     0
  9
$DIMDEC
 70
     2
  9
$DIMTDEC
 70
     2
  9
$DIMALTU
 70
     2
  9
$DIMALTTD
 70
     3
  9
$DIMTXSTY
  7
Standard
  9
$DIMAUNIT
 70
     0
  9
$DIMADEC
 70
     0
  9
$DIMALTRND
 40
0.0
  9
$DIMAZIN
 70
     0
  9
$DIMDSEP
 70
    44
  9
$DIMATFIT
 70
     3
  9
$DIMFRAC
 70
     0
  9
$DIMLDRBLK
  1

  9
$DIMLUNIT
 70
     2
  9
$DIMLWD
 70
    -2
  9
$DIMLWE
 70
    -2
  9
$DIMTMOVE
 70
     0
  9
$LUNITS
 70
     2
  9
$LUPREC
 70
     4
  9
$SKETCHINC
 40
1.0
  9
$FILLETRAD
 40
0.0
  9
$AUNITS
 70
     0
  9
$AUPREC
 70
     0
  9
$MENU
  1
.
  9
$ELEVATION
 40
0.0
  9
$PELEVATION
 40
0.0
  9
$THICKNESS
 40
0.0
  9
$LIMCHECK
 70
     0
  9
$CHAMFERA
 40
0.0
  9
$CHAMFERB
 40
0.0
  9
$CHAMFERC
 40
0.0
  9
$CHAMFERD
 40
0.0
  9
$SKPOLY
 70
     0
  9
$TDCREATE
 40
2460476.646099537
  9
$TDUCREATE
 40
2460476.354432870
  9
$TDUPDATE
 40
2460476.691932871
  9
$TDUUPDATE
 40
2460476.400266204
  9
$TDINDWG
 40
0.0017708333
  9
$TDUSRTIMER
 40
0.0017708333
  9
$USRTIMER
 70
     1
  9
$ANGBASE
 50
0.0
  9
$ANGDIR
 70
     0
  9
$PDMODE
 70
     0
  9
$PDSIZE
 40
0.0
  9
$PLINEWID
 40
0.0
  9
$SPLFRAME
 70
     0
  9
$SPLINETYPE
 70
     6
  9
$SPLINESEGS
 70
     8
  9
$HANDSEED
  5
2070
  9
$SURFTAB1
 70
     6
  9
$SURFTAB2
 70
     6
  9
$SURFTYPE
 70
     6
  9
$SURFU
 70
     6
  9
$SURFV
 70
     6
  9
$UCSBASE
  2

  9
$UCSNAME
  2

  9
$UCSORG
 10
0.0
 20
0.0
 30
0.0
  9
$UCSXDIR
 10
1.0
 20
0.0
 30
0.0
  9
$UCSYDIR
 10
0.0
 20
1.0
 30
0.0
  9
$UCSORTHOREF
  2

  9
$UCSORTHOVIEW
 70
     0
  9
$UCSORGTOP
 10
0.0
 20
0.0
 30
0.0
  9
$UCSORGBOTTOM
 10
0.0
 20
0.0
 30
0.0
  9
$UCSORGLEFT
 10
0.0
 20
0.0
 30
0.0
  9
$UCSORGRIGHT
 10
0.0
 20
0.0
 30
0.0
  9
$UCSORGFRONT
 10
0.0
 20
0.0
 30
0.0
  9
$UCSORGBACK
 10
0.0
 20
0.0
 30
0.0
  9
$PUCSBASE
  2

  9
$PUCSNAME
  2

  9
$PUCSORG
 10
0.0
 20
0.0
 30
0.0
  9
$PUCSXDIR
 10
1.0
 20
0.0
 30
0.0
  9
$PUCSYDIR
 10
0.0
 20
1.0
 30
0.0
  9
$PUCSORTHOREF
  2

  9
$PUCSORTHOVIEW
 70
     0
  9
$PUCSORGTOP
 10
0.0
 20
0.0
 30
0.0
  9
$PUCSORGBOTTOM
 10
0.0
 20
0.0
 30
0.0
  9
$PUCSORGLEFT
 10
0.0
 20
0.0
 30
0.0
  9
$PUCSORGRIGHT
 10
0.0
 20
0.0
 30
0.0
  9
$PUCSORGFRONT
 10
0.0
 20
0.0
 30
0.0
  9
$PUCSORGBACK
 10
0.0
 20
0.0
 30
0.0
  9
$USERI1
 70
     0
  9
$USERI2
 70
     0
  9
$USERI3
 70
     0
  9
$USERI4
 70
     0
  9
$USERI5
 70
     0
  9
$USERR1
 40
0.0
  9
$USERR2
 40
0.0
  9
$USERR3
 40
0.0
  9
$USERR4
 40
0.0
  9
$USERR5
 40
0.0
  9
$WORLDVIEW
 70
     1
  9
$SHADEDGE
 70
     3
  9
$SHADEDIF
 70
    70
  9
$TILEMODE
 70
     1
  9
$MAXACTVP
 70
    48
  9
$PINSBASE
 10
0.0
 20
0.0
 30
0.0
  9
$PLIMCHECK
 70
     0
  9
$PEXTMIN
 10
0.0
 20
0.0
 30
0.0
  9
$PEXTMAX
 10
0.0
 20
0.0
 30
0.0
  9
$PLIMMIN
 10
0.0
 20
0.0
  9
$PLIMMAX
 10
12.0
 20
9.0
  9
$UNITMODE
 70
     0
  9
$VISRETAIN
 70
     1
  9
$PLINEGEN
 70
     0
  9
$PSLTSCALE
 70
     1
  9
$TREEDEPTH
 70
  3020
  9
$CMLSTYLE
  2
Standard
  9
$CMLJUST
 70
     0
  9
$CMLSCALE
 40
20.0
  9
$PROXYGRAPHICS
 70
     1
  9
$MEASUREMENT
 70
     1
  9
$CELWEIGHT
370
    -1
  9
$ENDCAPS
280
     0
  9
$JOINSTYLE
280
     0
  9
$LWDISPLAY
290
     0
  9
$INSUNITS
 70
     4
  9
$HYPERLINKBASE
  1

  9
$STYLESHEET
  1

  9
$XEDIT
290
     1
  9
$CEPSNTYPE
380
     0
  9
$PSTYLEMODE
290
     1
  9
$FINGERPRINTGUID
  2
{F9DBAE76-D248-2544-A6C6-CA8F37DA12E5}
  9
$VERSIONGUID
  2
{B58AB580-FD25-D642-9E79-9057A8CA6D96}
  9
$EXTNAMES
290
     1
  9
$PSVPSCALE
 40
0.0
  9
$OLESTARTUP
290
     0
  0
ENDSEC
  0
SECTION
  2
CLASSES
  0
CLASS
  1
ACDBDICTIONARYWDFLT
  2
AcDbDictionaryWithDefault
  3
ObjectDBX Classes
 90
        0
280
     0
281
     0
  0
CLASS
  1
ACDBPLACEHOLDER
  2
AcDbPlaceHolder
  3
ObjectDBX Classes
 90
        0
280
     0
281
     0
  0
CLASS
  1
LAYOUT
  2
AcDbLayout
  3
ObjectDBX Classes
 90
        0
280
     0
281
     0
  0
CLASS
  1
DICTIONARYVAR
  2
AcDbDictionaryVar
  3
ObjectDBX Classes
 90
        0
280
     0
281
     0
  0
CLASS
  1
TABLESTYLE
  2
AcDbTableStyle
  3
ObjectDBX Classes
 90
     4095
280
     0
281
     0
  0
CLASS
  1
MATERIAL
  2
AcDbMaterial
  3
ObjectDBX Classes
 90
     1153
280
     0
281
     0
  0
CLASS
  1
VISUALSTYLE
  2
AcDbVisualStyle
  3
ObjectDBX Classes
 90
     4095
280
     0
281
     0
  0
CLASS
  1
SCALE
  2
AcDbScale
  3
ObjectDBX Classes
 90
     1153
280
     0
281
     0
  0
CLASS
  1
MLEADERSTYLE
  2
AcDbMLeaderStyle
  3
ACDB_MLEADERSTYLE_CLASS
 90
     4095
280
     0
281
     0
  0
CLASS
  1
CELLSTYLEMAP
  2
AcDbCellStyleMap
  3
ObjectDBX Classes
 90
     1152
280
     0
281
     0
  0
CLASS
  1
EXACXREFPANELOBJECT
  2
ExAcXREFPanelObject
  3
EXAC_ESW
 90
    33793
280
     0
281
     0
  0
CLASS
  1
NPOCOLLECTION
  2
AcDbImpNonPersistentObjectsCollection
  3
ObjectDBX Classes
 90
    33921
280
     0
281
     0
  0
CLASS
  1
LAYER_INDEX
  2
AcDbLayerIndex
  3
ObjectDBX Classes
 90
    32768
280
     0
281
     0
  0
CLASS
  1
SPATIAL_INDEX
  2
AcDbSpatialIndex
  3
ObjectDBX Classes
 90
    32768
280
     0
281
     0
  0
CLASS
  1
IDBUFFER
  2
AcDbIdBuffer
  3
ObjectDBX Classes
 90
    32768
280
     0
281
     0
  0
CLASS
  1
ACDBSECTIONVIEWSTYLE
  2
AcDbSectionViewStyle
  3
ObjectDBX Classes
 90
     1025
280
     0
281
     0
  0
CLASS
  1
ACDBDETAILVIEWSTYLE
  2
AcDbDetailViewStyle
  3
ObjectDBX Classes
 90
     1025
280
     0
281
     0
  0
CLASS
  1
XRECORD
  2
AcDbXrecord
  3
ObjectDBX Classes
 90
        0
280
     0
281
     0
  0
ENDSEC
  0
SECTION
  2
TABLES
  0
TABLE
  2
VPORT
  5
8
102
{ACAD_XDICTIONARY
360
1F7E
102
}
330
0
100
AcDbSymbolTable
 70
     1
  0
VPORT
  5
EA
330
8
100
AcDbSymbolTableRecord
100
AcDbViewportTableRecord
  2
*Active
 70
     0
 10
0.0
 20
0.0
 11
1.0
 21
1.0
 12
6.091461922148539
 22
-36.42256116927899
 13
0.0
 23
0.0
 14
10.0
 24
10.0
 15
10.0
 25
10.0
 16
0.0
 26
0.0
 36
1.0
 17
0.0
 27
0.0
 37
0.0
 40
77.49310221265663
 41
0.9846153846153844
 42
50.0
 43
0.0
 44
0.0
 50
0.0
 51
0.0
 71
     0
 72
  1000
 73
     1
 74
     3
 75
     0
 76
     1
 77
     0
 78
     0
281
     0
 65
     1
110
0.0
120
0.0
130
0.0
111
1.0
121
0.0
131
0.0
112
0.0
122
1.0
132
0.0
 79
     0
146
0.0
1001
ACAD_NAV_VCDISPLAY
1070
     3
  0
ENDTAB
  0
TABLE
  2
LTYPE
  5
5
330
0
100
AcDbSymbolTable
 70
     1
  0
LTYPE
  5
14
330
5
100
AcDbSymbolTableRecord
100
AcDbLinetypeTableRecord
  2
ByBlock
 70
     0
  3

 72
    65
 73
     0
 40
0.0
  0
LTYPE
  5
15
330
5
100
AcDbSymbolTableRecord
100
AcDbLinetypeTableRecord
  2
ByLayer
 70
     0
  3

 72
    65
 73
     0
 40
0.0
  0
LTYPE
  5
16
330
5
100
AcDbSymbolTableRecord
100
AcDbLinetypeTableRecord
  2
Continuous
 70
     0
  3
Solid line
 72
    65
 73
     0
 40
0.0
  0
ENDTAB
  0
TABLE
  2
LAYER
  5
2
102
{ACAD_XDICTIONARY
360
1FF
102
}
330
0
100
AcDbSymbolTable
 70
     1
  0
LAYER
  5
10
102
{ACAD_XDICTIONARY
360
13C
102
}
330
2
100
AcDbSymbolTableRecord
100
AcDbLayerTableRecord
  2
0
 70
     0
 62
     7
  6
Continuous
370
    -3
390
F
  0
ENDTAB
  0
TABLE
  2
STYLE
  5
3
330
0
100
AcDbSymbolTable
 70
     1
  0
STYLE
  5
11
330
3
100
AcDbSymbolTableRecord
100
AcDbTextStyleTableRecord
  2
Standard
 70
     0
 40
0.0
 41
1.0
 50
0.0
 71
     0
 42
2.5
  3
arial_1.ttf
  4

1001
ACAD
1000
Arial
1071
       34
  0
ENDTAB
  0
TABLE
  2
VIEW
  5
6
330
0
100
AcDbSymbolTable
 70
     0
  0
ENDTAB
  0
TABLE
  2
UCS
  5
7
330
0
100
AcDbSymbolTable
 70
     0
  0
ENDTAB
  0
TABLE
  2
APPID
  5
9
330
0
100
AcDbSymbolTable
 70
     8
  0
APPID
  5
12
330
9
100
AcDbSymbolTableRecord
100
AcDbRegAppTableRecord
  2
ACAD
 70
     0
  0
APPID
  5
9E
330
9
100
AcDbSymbolTableRecord
100
AcDbRegAppTableRecord
  2
ACAD_PSEXT
 70
     0
  0
APPID
  5
133
330
9
100
AcDbSymbolTableRecord
100
AcDbRegAppTableRecord
  2
AcadAnnoPO
 70
     0
  0
APPID
  5
134
330
9
100
AcDbSymbolTableRecord
100
AcDbRegAppTableRecord
  2
AcadAnnotative
 70
     0
  0
APPID
  5
135
330
9
100
AcDbSymbolTableRecord
100
AcDbRegAppTableRecord
  2
ACAD_DSTYLE_DIMJAG
 70
     0
  0
APPID
  5
136
330
9
100
AcDbSymbolTableRecord
100
AcDbRegAppTableRecord
  2
ACAD_DSTYLE_DIMTALN
 70
     0
  0
APPID
  5
165
330
9
100
AcDbSymbolTableRecord
100
AcDbRegAppTableRecord
  2
ACAD_MLEADERVER
 70
     0
  0
APPID
  5
217
330
9
100
AcDbSymbolTableRecord
100
AcDbRegAppTableRecord
  2
ACAD_NAV_VCDISPLAY
 70
     0
  0
ENDTAB
  0
TABLE
  2
DIMSTYLE
  5
A
330
0
100
AcDbSymbolTable
 70
     1
100
AcDbDimStyleTable
 71
     0
  0
DIMSTYLE
105
27
330
A
100
AcDbSymbolTableRecord
100
AcDbDimStyleTableRecord
  2
ISO-25
 70
     0
 41
2.5
 42
0.625
 43
3.75
 44
1.25
 73
     0
 74
     0
 77
     1
 78
     8
140
2.5
141
2.5
143
0.03937007874016
147
0.625
171
     3
172
     1
271
     2
272
     2
274
     3
278
    44
283
     0
284
     8
340
11
  0
ENDTAB
  0
TABLE
  2
BLOCK_RECORD
  5
1
330
0
100
AcDbSymbolTable
 70
     4
  0
BLOCK_RECORD
  5
1F
102
{ACAD_XDICTIONARY
360
1CE
102
}
330
1
100
AcDbSymbolTableRecord
100
AcDbBlockTableRecord
  2
*Model_Space
340
22
  0
BLOCK_RECORD
  5
D2
102
{ACAD_XDICTIONARY
360
1F31
102
}
330
1
100
AcDbSymbolTableRecord
100
AcDbBlockTableRecord
  2
*Paper_Space
340
D3
  0
BLOCK_RECORD
  5
D6
102
{ACAD_XDICTIONARY
360
1F33
102
}
330
1
100
AcDbSymbolTableRecord
100
AcDbBlockTableRecord
  2
*Paper_Space0
340
D7
  0
BLOCK_RECORD
  5
1CA4
330
1
100
AcDbSymbolTableRecord
100
AcDbBlockTableRecord
  2
DSIX442X35T-20-Front
340
0
102
{BLKREFS
331
1F2A
102
}
  0
BLOCK_RECORD
  5
1DE7
330
1
100
AcDbSymbolTableRecord
100
AcDbBlockTableRecord
  2
DSIX442X35T-20-Top
340
0
102
{BLKREFS
331
1F2B
102
}
  0
BLOCK_RECORD
  5
1E7C
330
1
100
AcDbSymbolTableRecord
100
AcDbBlockTableRecord
  2
DSIX442X35T-20-ISO
340
0
102
{BLKREFS
331
1F2C
102
}
  0
ENDTAB
  0
ENDSEC
  0
SECTION
  2
BLOCKS
  0
BLOCK
  5
20
330
1F
100
AcDbEntity
  8
0
100
AcDbBlockBegin
  2
*Model_Space
 70
     0
 10
0.0
 20
0.0
 30
0.0
  3
*Model_Space
  1

  0
ENDBLK
  5
21
330
1F
100
AcDbEntity
  8
0
100
AcDbBlockEnd
  0
BLOCK
  5
D4
330
D2
100
AcDbEntity
 67
     1
  8
0
100
AcDbBlockBegin
  2
*Paper_Space
 70
     0
 10
0.0
 20
0.0
 30
0.0
  3
*Paper_Space
  1

  0
ENDBLK
  5
D5
330
D2
100
AcDbEntity
 67
     1
  8
0
100
AcDbBlockEnd
  0
BLOCK
  5
D8
330
D6
100
AcDbEntity
 67
     1
  8
0
100
AcDbBlockBegin
  2
*Paper_Space0
 70
     0
 10
0.0
 20
0.0
 30
0.0
  3
*Paper_Space0
  1

  0
ENDBLK
  5
D9
330
D6
100
AcDbEntity
 67
     1
  8
0
100
AcDbBlockEnd
  0
BLOCK
  5
1CA5
330
1CA4
100
AcDbEntity
  8
0
100
AcDbBlockBegin
  2
DSIX442X35T-20-Front
 70
     0
 10
0.0
 20
0.0
 30
0.0
  3
DSIX442X35T-20-Front
  1

  0
LINE
  5
1CA7
330
1CA4
100
AcDbEntity
  8
0
100
AcDbLine
 10
3.5
 20
0.0
 30
0.0
 11
-3.5
 21
0.0
 31
0.0
  0
LINE
  5
1CA8
330
1CA4
100
AcDbEntity
  8
0
100
AcDbLine
 10
1.3
 20
-15.0
 30
0.0
 11
-1.3
 21
-15.0
 31
0.0
  0
LINE
  5
1CA9
330
1CA4
100
AcDbEntity
  8
0
100
AcDbLine
 10
1.525
 20
-14.775
 30
0.0
 11
-1.525
 21
-14.775
 31
0.0
  0
LINE
  5
1CAA
330
1CA4
100
AcDbEntity
  8
0
100
AcDbLine
 10
1.484292760879741
 20
-3.854699269900723
 30
0.0
 11
0.3500000000000002
 21
-3.854699269900722
 31
0.0
  0
LINE
  5
1CAB
330
1CA4
100
AcDbEntity
  8
0
100
AcDbLine
 10
-0.3499999999999999
 20
-3.854699269900722
 30
0.0
 11
-1.484292760879741
 21
-3.854699269900723
 31
0.0
  0
LINE
  5
1CAC
330
1CA4
100
AcDbEntity
  8
0
100
AcDbLine
 10
3.482456029873171
 20
-0.5999999999999999
 30
0.0
 11
0.3500000000000009
 21
-0.5999999999999992
 31
0.0
  0
LINE
  5
1CAD
330
1CA4
100
AcDbEntity
  8
0
100
AcDbLine
 10
-0.3499999999999988
 20
-0.5999999999999992
 30
0.0
 11
-3.48245602987317
 21
-0.5999999999999999
 31
0.0
  0
LINE
  5
1CAE
330
1CA4
100
AcDbEntity
  8
0
100
AcDbLine
 10
1.299999999999998
 20
-28.61029585960745
 30
0.0
 11
-0.4203484811052769
 21
-28.61029585960745
 31
0.0
  0
LINE
  5
1CAF
330
1CA4
100
AcDbEntity
  8
0
100
AcDbLine
 10
-1.3
 20
-15.0
 30
0.0
 11
-1.525
 21
-14.775
 31
0.0
  0
LINE
  5
1CB0
330
1CA4
100
AcDbEntity
  8
0
100
AcDbLine
 10
1.3
 20
-15.0
 30
0.0
 11
1.525
 21
-14.775
 31
0.0
  0
LINE
  5
1CB1
330
1CA4
100
AcDbEntity
  8
0
100
AcDbLine
 10
-1.525
 20
-14.775
 30
0.0
 11
-1.525
 21
-4.48117720585369
 31
0.0
  0
LINE
  5
1CB2
330
1CA4
100
AcDbEntity
  8
0
100
AcDbLine
 10
1.525
 20
-14.775
 30
0.0
 11
1.525
 21
-4.48117720585369
 31
0.0
  0
LINE
  5
1CB3
330
1CA4
100
AcDbEntity
  8
0
100
AcDbLine
 10
-3.5
 20
-1.226477935952966
 30
0.0
 11
-3.5
 21
0.0
 31
0.0
  0
LINE
  5
1CB4
330
1CA4
100
AcDbEntity
  8
0
100
AcDbLine
 10
3.5
 20
-1.226477935952966
 30
0.0
 11
3.5
 21
0.0
 31
0.0
  0
LINE
  5
1CB5
330
1CA4
100
AcDbEntity
  8
0
100
AcDbLine
 10
0.0
 20
-35.0
 30
0.0
 11
-0.5423404485527805
 21
-32.33431153106149
 31
0.0
  0
LINE
  5
1CB6
330
1CA4
100
AcDbEntity
  8
0
100
AcDbLine
 10
-0.7006633613804031
 20
-31.55612955289714
 30
0.0
 11
-1.173164113497637
 21
-29.23371415894168
 31
0.0
  0
LINE
  5
1CB7
330
1CA4
100
AcDbEntity
  8
0
100
AcDbLine
 10
1.289133158619963
 20
-28.66370809142207
 30
0.0
 11
1.299999999999999
 21
-28.61029585960744
 31
0.0
  0
LINE
  5
1CB8
330
1CA4
100
AcDbEntity
  8
0
100
AcDbLine
 10
1.299999999999999
 20
-28.61029585960744
 30
0.0
 11
1.299999999999999
 21
-27.88530322406425
 31
0.0
  0
LINE
  5
1CB9
330
1CA4
100
AcDbEntity
  8
0
100
AcDbLine
 10
-1.299999999999999
 20
-28.54098812590529
 30
0.0
 11
-1.299999999999999
 21
-26.29717607495915
 31
0.0
  0
LINE
  5
1CBA
330
1CA4
100
AcDbEntity
  8
0
100
AcDbLine
 10
-1.299999999999999
 20
-25.23133458071905
 30
0.0
 11
-1.299999999999999
 21
-23.19717607495915
 31
0.0
  0
LINE
  5
1CBB
330
1CA4
100
AcDbEntity
  8
0
100
AcDbLine
 10
-1.299999999999999
 20
-22.13133458071905
 30
0.0
 11
-1.299999999999999
 21
-20.09717607495915
 31
0.0
  0
LINE
  5
1CBC
330
1CA4
100
AcDbEntity
  8
0
100
AcDbLine
 10
-1.299999999999999
 20
-19.03133458071905
 30
0.0
 11
-1.299999999999999
 21
-16.88877702618279
 31
0.0
  0
LINE
  5
1CBD
330
1CA4
100
AcDbEntity
  8
0
100
AcDbLine
 10
-1.299999999999999
 20
-16.09434880235306
 30
0.0
 11
-1.299999999999999
 21
-15.0
 31
0.0
  0
LINE
  5
1CBE
330
1CA4
100
AcDbEntity
  8
0
100
AcDbLine
 10
1.299999999999999
 20
-27.00231252733324
 30
0.0
 11
1.299999999999999
 21
-24.88925713849584
 31
0.0
  0
LINE
  5
1CBF
330
1CA4
100
AcDbEntity
  8
0
100
AcDbLine
 10
1.299999999999999
 20
-23.82341564425574
 30
0.0
 11
1.299999999999999
 21
-21.78925713849583
 31
0.0
  0
LINE
  5
1CC0
330
1CA4
100
AcDbEntity
  8
0
100
AcDbLine
 10
1.299999999999999
 20
-20.72341564425574
 30
0.0
 11
1.299999999999999
 21
-18.68925713849583
 31
0.0
  0
LINE
  5
1CC1
330
1CA4
100
AcDbEntity
  8
0
100
AcDbLine
 10
1.299999999999999
 20
-17.62341564425573
 30
0.0
 11
1.299999999999999
 21
-15.07954751859955
 31
0.0
  0
LINE
  5
1CC2
330
1CA4
100
AcDbEntity
  8
0
100
AcDbLine
 10
1.299999999999999
 20
-15.03930790420006
 30
0.0
 11
1.299999999999999
 21
-15.0
 31
0.0
  0
SPLINE
  5
1CC3
330
1CA4
100
AcDbEntity
  8
0
100
AcDbSpline
210
0.0
220
0.0
230
1.0
 70
     8
 71
     3
 72
    17
 73
    13
 74
     0
 42
0.000000001
 43
0.0000000001
 40
1.418115877383924
 40
1.418115877383924
 40
1.418115877383924
 40
1.418115877383924
 40
2.553449081692271
 40
2.553449081692271
 40
2.553449081692271
 40
3.722726375294743
 40
3.722726375294743
 40
3.722726375294743
 40
4.890293930863474
 40
4.890293930863474
 40
4.890293930863474
 40
5.147292416328147
 40
5.147292416328147
 40
5.147292416328147
 40
5.147292416328147
 10
1.95363502156783
 20
-27.30996633007198
 30
0.0
 10
2.034863283497229
 20
-27.49668335131141
 30
0.0
 10
1.651389443046072
 20
-27.68340037255085
 30
0.0
 10
1.041869266924506
 20
-27.87011739379028
 30
0.0
 10
0.4141257117928596
 20
-28.06241686361629
 30
0.0
 10
-0.4150397531706
 20
-28.25471633344231
 30
0.0
 10
-0.9750491491548812
 20
-28.44701580326832
 30
0.0
 10
-1.534239689450434
 20
-28.63903408939288
 30
0.0
 10
-1.796789909199278
 20
-28.83105237551746
 30
0.0
 10
-1.64813242641293
 20
-29.02307066164202
 30
0.0
 10
-1.61541076697073
 20
-29.06533666028181
 30
0.0
 10
-1.563514179433516
 20
-29.10760265892161
 30
0.0
 10
-1.496031908832282
 20
-29.14986865756141
 30
0.0
  0
SPLINE
  5
1CC4
330
1CA4
100
AcDbEntity
  8
0
100
AcDbSpline
210
0.0
220
0.0
230
1.0
 70
     8
 71
     3
 72
    12
 73
     8
 74
     0
 42
0.000000001
 43
0.0000000001
 40
0.0
 40
0.0
 40
0.0
 40
0.0
 40
0.057345209077749
 40
0.057345209077749
 40
0.1133100462992975
 40
0.1133100462992975
 40
0.1669733265100562
 40
0.1669733265100562
 40
0.1669733265100562
 40
0.1669733265100562
 10
-0.420348481105278
 20
-28.61029585960745
 30
0.0
 10
-0.5841108069085283
 20
-28.67898573343893
 30
0.0
 10
-0.7311299579271724
 20
-28.74783930990297
 30
0.0
 10
-0.9691352766340912
 20
-28.88740810524466
 30
0.0
 10
-1.05874381874035
 20
-28.95652498326365
 30
0.0
 10
-1.167097919766085
 20
-29.09549171722563
 30
0.0
 10
-1.187406658447329
 20
-29.16371179133263
 30
0.0
 10
-1.173164134459474
 20
-29.23371410793817
 30
0.0
  0
SPLINE
  5
1CC5
330
1CA4
100
AcDbEntity
  8
0
100
AcDbSpline
210
0.0
220
0.0
230
1.0
 70
     8
 71
     3
 72
    14
 73
    10
 74
     0
 42
0.000000001
 43
0.0000000001
 40
0.2899960579116626
 40
0.2899960579116626
 40
0.2899960579116626
 40
0.2899960579116626
 40
0.3402338994842805
 40
0.3402338994842805
 40
0.3969395493983272
 40
0.3969395493983272
 40
0.4375917529565413
 40
0.4375917529565413
 40
0.478243956514755
 40
0.478243956514755
 40
0.478243956514755
 40
0.478243956514755
 10
1.119437600218138
 20
-28.00463756280593
 30
0.0
 10
1.039022730298475
 20
-28.05855453782852
 30
0.0
 10
0.934329643960112
 20
-28.1120834600594
 30
0.0
 10
0.6705000559190775
 20
-28.22710301575987
 30
0.0
 10
0.5090783354824841
 20
-28.28745039541849
 30
0.0
 10
0.2123623437830831
 20
-28.39216043335218
 30
0.0
 10
0.0842368340112544
 20
-28.43564493529262
 30
0.0
 10
-0.1721364312295976
 20
-28.52308921687555
 30
0.0
 10
-0.2989785068892644
 20
-28.56657371881599
 30
0.0
 10
-0.420348481105278
 20
-28.61029585960745
 30
0.0
  0
SPLINE
  5
1CC6
330
1CA4
100
AcDbEntity
  8
0
100
AcDbSpline
210
0.0
220
0.0
230
1.0
 70
     8
 71
     3
 72
    20
 73
    16
 74
     0
 42
0.000000001
 43
0.0000000001
 40
0.0626754246579686
 40
0.0626754246579686
 40
0.0626754246579686
 40
0.0626754246579686
 40
0.1193926424992098
 40
0.1193926424992098
 40
0.1790889637488145
 40
0.1790889637488145
 40
0.2387852849984193
 40
0.2387852849984193
 40
0.2984816062480241
 40
0.2984816062480241
 40
0.358177927497629
 40
0.358177927497629
 40
0.4178742487472339
 40
0.4178742487472339
 40
0.4183432755932958
 40
0.4183432755932958
 40
0.4183432755932958
 40
0.4183432755932958
 10
-1.052856771075831
 20
-28.36935550582235
 30
0.0
 10
-0.9506526072947963
 20
-28.29649571070409
 30
0.0
 10
-0.8210535222017425
 20
-28.22432521245757
 30
0.0
 10
-0.5145429316043624
 20
-28.07462175524995
 30
0.0
 10
-0.3390401441224547
 20
-27.99870279403029
 30
0.0
 10
0.0254464452190928
 20
-27.84516832126302
 30
0.0
 10
0.2103300201744519
 20
-27.76924936004336
 30
0.0
 10
0.5609691136511604
 20
-27.61571488727609
 30
0.0
 10
0.7227801802041589
 20
-27.53979592605644
 30
0.0
 10
0.9980228043662561
 20
-27.38626145328916
 30
0.0
 10
1.108358069146494
 20
-27.3103424920695
 30
0.0
 10
1.259889870911375
 20
-27.15680801930222
 30
0.0
 10
1.299381777907921
 20
-27.08088905808257
 30
0.0
 10
1.299997600262566
 20
-27.00351867071729
 30
0.0
 10
1.300000000085233
 20
-27.00291557197245
 30
0.0
 10
1.300000000230212
 20
-27.00231252464474
 30
0.0
  0
SPLINE
  5
1CC7
330
1CA4
100
AcDbEntity
  8
0
100
AcDbSpline
210
0.0
220
0.0
230
1.0
 70
     8
 71
     3
 72
     8
 73
     4
 74
     0
 42
0.000000001
 43
0.0000000001
 40
0.0
 40
0.0
 40
0.0
 40
0.0
 40
0.0802929274697667
 40
0.0802929274697667
 40
0.0802929274697667
 40
0.0802929274697667
 10
1.793824782646971
 20
-27.57201461889252
 30
0.0
 10
1.566675021352914
 20
-27.71314617460503
 30
0.0
 10
1.340619286434308
 20
-27.85634045752747
 30
0.0
 10
1.11943760380701
 20
-28.0046373296725
 30
0.0
  0
SPLINE
  5
1CC8
330
1CA4
100
AcDbEntity
  8
0
100
AcDbSpline
210
0.0
220
0.0
230
1.0
 70
     8
 71
     3
 72
     8
 73
     4
 74
     0
 42
0.000000001
 43
0.0000000001
 40
0.027892534138682
 40
0.027892534138682
 40
0.027892534138682
 40
0.027892534138682
 40
0.0703639542136613
 40
0.0703639542136613
 40
0.0703639542136613
 40
0.0703639542136613
 10
-1.143234450599755
 20
-29.3808231519718
 30
0.0
 10
-1.26045608010582
 20
-29.30253614871981
 30
0.0
 10
-1.379185231982646
 20
-29.22576365002322
 30
0.0
 10
-1.49840225980567
 20
-29.14986865756141
 30
0.0
  0
SPLINE
  5
1CC9
330
1CA4
100
AcDbEntity
  8
0
100
AcDbSpline
210
0.0
220
0.0
230
1.0
 70
     8
 71
     3
 72
     8
 73
     4
 74
     0
 42
0.000000001
 43
0.0000000001
 40
0.0
 40
0.0
 40
0.0
 40
0.0
 40
0.0572732349777274
 40
0.0572732349777274
 40
0.0572732349777274
 40
0.0572732349777274
 10
-1.52312008543766
 20
-28.68978367494993
 30
0.0
 10
-1.364129948584921
 20
-28.58532206557579
 30
0.0
 10
-1.20656893518175
 20
-28.47893316738316
 30
0.0
 10
-1.052856756633962
 20
-28.3693555850254
 30
0.0
  0
SPLINE
  5
1CCA
330
1CA4
100
AcDbEntity
  8
0
100
AcDbSpline
210
0.0
220
0.0
230
1.0
 70
     8
 71
     3
 72
    10
 73
     6
 74
     0
 42
0.000000001
 43
0.0000000001
 40
-0.1044680806805455
 40
-0.1044680806805455
 40
-0.1044680806805455
 40
-0.1044680806805455
 40
-0.0540049185076343
 40
-0.0540049185076343
 40
-0.0245838895216524
 40
-0.0245838895216524
 40
-0.0245838895216524
 40
-0.0245838895216524
 10
1.95363502156783
 20
-27.30996633007198
 30
0.0
 10
1.81498990778735
 20
-27.2207255239569
 30
0.0
 10
1.674418725262575
 20
-27.12842125401352
 30
0.0
 10
1.458610173073311
 20
-26.98171159420869
 30
0.0
 10
1.378947513474772
 20
-26.92645417390474
 30
0.0
 10
1.2999998568259
 20
-26.87012478867005
 30
0.0
  0
SPLINE
  5
1CCB
330
1CA4
100
AcDbEntity
  8
0
100
AcDbSpline
210
0.0
220
0.0
230
1.0
 70
     8
 71
     3
 72
     8
 73
     4
 74
     0
 42
0.000000001
 43
0.0000000001
 40
2.134232733041554
 40
2.134232733041554
 40
2.134232733041554
 40
2.134232733041554
 40
2.296623994976149
 40
2.296623994976149
 40
2.296623994976149
 40
2.296623994976149
 10
1.289132919380646
 20
-28.6637081679625
 30
0.0
 10
1.177054325620076
 20
-29.21457013006314
 30
0.0
 10
1.050694547299814
 20
-29.77821415260306
 30
0.0
 10
0.9202993762258206
 20
-30.34599920224763
 30
0.0
  0
SPLINE
  5
1CCC
330
1CA4
100
AcDbEntity
  8
0
100
AcDbSpline
210
0.0
220
0.0
230
1.0
 70
     8
 71
     3
 72
    10
 73
     6
 74
     0
 42
0.000000001
 43
0.0000000001
 40
-0.0507675969598552
 40
-0.0507675969598552
 40
-0.0507675969598552
 40
-0.0507675969598552
 40
-0.025232428500031
 40
-0.025232428500031
 40
-0.0002590135614553
 40
-0.0002590135614553
 40
-0.0002590135614553
 40
-0.0002590135614553
 10
1.377664625642493
 20
-30.57044368406831
 30
0.0
 10
1.302630771245301
 20
-30.53155220996259
 30
0.0
 10
1.224996329561803
 20
-30.49198377682277
 30
0.0
 10
1.074862385103326
 20
-30.41779655325246
 30
0.0
 10
0.9962688108248993
 20
-30.38011088517179
 30
0.0
 10
0.9202993762258206
 20
-30.34599920224763
 30
0.0
  0
SPLINE
  5
1CCD
330
1CA4
100
AcDbEntity
  8
0
100
AcDbSpline
210
0.0
220
0.0
230
1.0
 70
     8
 71
     3
 72
    10
 73
     6
 74
     0
 42
0.000000001
 43
0.0000000001
 40
2.361564659435801
 40
2.361564659435801
 40
2.361564659435801
 40
2.361564659435801
 40
2.552974478438969
 40
2.552974478438969
 40
2.747747586946196
 40
2.747747586946196
 40
2.747747586946196
 40
2.747747586946196
 10
0.7626572028272593
 20
-31.02859530874591
 30
0.0
 10
0.6072512277353335
 20
-31.70015163531608
 30
0.0
 10
0.4520109556199298
 20
-32.37281887374299
 30
0.0
 10
0.1793980994038057
 20
-33.70527072437841
 30
0.0
 10
0.0586104020621717
 20
-34.36379006392658
 30
0.0
 10
0.0
 20
-35.0
 30
0.0
  0
ELLIPSE
  5
1CCE
330
1CA4
100
AcDbEntity
  8
0
100
AcDbEllipse
 10
0.0
 20
-6.994299426916274
 30
0.0
 11
-0.0000000000000007
 21
-2.513122221062586
 31
0.0
210
0.0
220
0.0
230
1.0
 40
0.6068148963145963
 41
2.910020292007265
 42
3.373165015172318
  0
LINE
  5
1CCF
330
1CA4
100
AcDbEntity
  8
0
100
AcDbLine
 10
-1.484292760879741
 20
-3.854699269900723
 30
0.0
 11
-1.48429276087974
 21
-4.548260659749582
 31
0.0
  0
LINE
  5
1CD0
330
1CA4
100
AcDbEntity
  8
0
100
AcDbLine
 10
1.48429276087974
 20
-4.548260659749582
 30
0.0
 11
1.484292760879741
 21
-3.854699269900723
 31
0.0
  0
LINE
  5
1CD1
330
1CA4
100
AcDbEntity
  8
0
100
AcDbLine
 10
0.3500000000000011
 20
-0.5999999999999992
 30
0.0
 11
0.3500000000000011
 21
-1.255389503934208
 31
0.0
  0
LINE
  5
1CD2
330
1CA4
100
AcDbEntity
  8
0
100
AcDbLine
 10
0.3500000000000011
 20
-1.255389503934208
 30
0.0
 11
0.3500000000000004
 21
-4.548260659749582
 31
0.0
  0
LINE
  5
1CD3
330
1CA4
100
AcDbEntity
  8
0
100
AcDbLine
 10
3.48245602987317
 20
-1.255389503934208
 30
0.0
 11
3.5
 21
-1.226477935952965
 31
0.0
  0
LINE
  5
1CD4
330
1CA4
100
AcDbEntity
  8
0
100
AcDbLine
 10
3.48245602987317
 20
-1.255389503934209
 30
0.0
 11
1.48429276087974
 21
-4.548260659749583
 31
0.0
  0
SPLINE
  5
1CD5
330
1CA4
100
AcDbEntity
  8
0
100
AcDbSpline
210
0.0
220
0.0
230
1.0
 70
    12
 71
     2
 72
     6
 73
     3
 74
     0
 42
0.000000001
 43
0.0000000001
 40
0.0
 40
0.0
 40
0.0
 40
0.3819135332074239
 40
0.3819135332074239
 40
0.3819135332074239
 10
1.484292760879741
 20
-3.854699269900723
 30
0.0
 41
1.0
 10
2.090700519134482
 20
-2.882045574555263
 30
0.0
 41
1.089871223951879
 10
3.482456029873169
 20
-0.6000000000000002
 30
0.0
 41
1.0
  0
LINE
  5
1CD6
330
1CA4
100
AcDbEntity
  8
0
100
AcDbLine
 10
3.48245602987317
 20
-1.255389503934209
 30
0.0
 11
3.482456029873169
 21
-0.6
 31
0.0
  0
LINE
  5
1CD7
330
1CA4
100
AcDbEntity
  8
0
100
AcDbLine
 10
-0.3499999999999988
 20
-1.255389503934208
 30
0.0
 11
-0.3499999999999995
 21
-4.548260659749582
 31
0.0
  0
LINE
  5
1CD8
330
1CA4
100
AcDbEntity
  8
0
100
AcDbLine
 10
-0.3499999999999988
 20
-1.255389503934208
 30
0.0
 11
-0.349999999999999
 21
-0.5999999999999992
 31
0.0
  0
SPLINE
  5
1CD9
330
1CA4
100
AcDbEntity
  8
0
100
AcDbSpline
210
0.0
220
0.0
230
1.0
 70
    12
 71
     2
 72
     6
 73
     3
 74
     0
 42
0.000000001
 43
0.0000000001
 40
0.0
 40
0.0
 40
0.0
 40
0.3819135332074239
 40
0.3819135332074239
 40
0.3819135332074239
 10
-3.482456029873169
 20
-0.5999999999999999
 30
0.0
 41
1.0
 10
-2.090700519129496
 20
-2.882045574563348
 30
0.0
 41
1.08987122395718
 10
-1.484292760879741
 20
-3.854699269900723
 30
0.0
 41
1.0
  0
LINE
  5
1CDA
330
1CA4
100
AcDbEntity
  8
0
100
AcDbLine
 10
-3.482456029873169
 20
-0.5999999999999999
 30
0.0
 11
-3.48245602987317
 21
-1.255389503934209
 31
0.0
  0
LINE
  5
1CDB
330
1CA4
100
AcDbEntity
  8
0
100
AcDbLine
 10
-3.48245602987317
 20
-1.255389503934209
 30
0.0
 11
-1.48429276087974
 21
-4.548260659749583
 31
0.0
  0
LINE
  5
1CDC
330
1CA4
100
AcDbEntity
  8
0
100
AcDbLine
 10
-3.5
 20
-1.226477935952965
 30
0.0
 11
-3.48245602987317
 21
-1.255389503934208
 31
0.0
  0
ELLIPSE
  5
1CDD
330
1CA4
100
AcDbEntity
  8
0
100
AcDbEllipse
 10
0.0
 20
-6.994299426916274
 30
0.0
 11
-0.0000000000000016
 21
-5.76782149096331
 31
0.0
210
0.0
220
0.0
230
1.0
 40
0.6068148963145963
 41
3.041425232428231
 42
3.241760074751351
  0
SPLINE
  5
1CDE
330
1CA4
100
AcDbEntity
  8
0
100
AcDbSpline
210
0.0
220
0.0
230
1.0
 70
     8
 71
     3
 72
    17
 73
    13
 74
     0
 42
0.000000001
 43
0.0000000001
 40
1.184327351287556
 40
1.184327351287556
 40
1.184327351287556
 40
1.184327351287556
 40
2.262767929533186
 40
2.262767929533186
 40
2.262767929533186
 40
3.400491854568898
 40
3.400491854568898
 40
3.400491854568898
 40
4.533878536654526
 40
4.533878536654526
 40
4.533878536654526
 40
5.098857955892027
 40
5.098857955892027
 40
5.098857955892027
 40
5.098857955892027
 10
-1.944640039118836
 20
-26.02597204779878
 30
0.0
 10
-2.224555348526732
 20
-25.84861159397814
 30
0.0
 10
-2.098652229403393
 20
-25.67125114015752
 30
0.0
 10
-1.616977988553326
 20
-25.49389068633689
 30
0.0
 10
-1.108825458925756
 20
-25.30678048690876
 30
0.0
 10
-0.2322295613881055
 20
-25.11967028748064
 30
0.0
 10
0.5376348499315789
 20
-24.93256008805251
 30
0.0
 10
1.304564376155643
 20
-24.74616319206778
 30
0.0
 10
1.925755499694062
 20
-24.55976629608305
 30
0.0
 10
2.066629479280755
 20
-24.37336940009831
 30
0.0
 10
2.13685343764429
 20
-24.28045282387092
 30
0.0
 10
2.085984515154077
 20
-24.18753624764351
 30
0.0
 10
1.937047762991223
 20
-24.09461967141612
 30
0.0
  0
SPLINE
  5
1CDF
330
1CA4
100
AcDbEntity
  8
0
100
AcDbSpline
210
0.0
220
0.0
230
1.0
 70
     8
 71
     3
 72
    20
 73
    16
 74
     0
 42
0.000000001
 43
0.0000000001
 40
7.467512658467143
 40
7.467512658467143
 40
7.467512658467143
 40
7.467512658467143
 40
7.911390723470987
 40
7.911390723470987
 40
7.911390723470987
 40
9.030749176931507
 40
9.030749176931507
 40
9.030749176931507
 40
10.14737992243203
 40
10.14737992243203
 40
10.14737992243203
 40
11.31376669594795
 40
11.31376669594795
 40
11.31376669594795
 40
11.38204326307161
 40
11.38204326307161
 40
11.38204326307161
 40
11.38204326307161
 10
-1.938224601332453
 20
-22.92597204779877
 30
0.0
 10
-2.05682432615151
 20
-22.85297181335083
 30
0.0
 10
-2.114368404781334
 20
-22.77997157890288
 30
0.0
 10
-2.096540356614026
 20
-22.70697134445494
 30
0.0
 10
-2.051582116957364
 20
-22.52288153246301
 30
0.0
 10
-1.529721616036905
 20
-22.33879172047107
 30
0.0
 10
-0.8062143143901884
 20
-22.15470190847913
 30
0.0
 10
-0.084470091067237
 20
-21.9710606956325
 30
0.0
 10
0.8025115463085327
 20
-21.78741948278589
 30
0.0
 10
1.3888110754684
 20
-21.60377826993926
 30
0.0
 10
2.00123556663191
 20
-21.41195417535846
 30
0.0
 10
2.250018246451569
 20
-21.22013008077765
 30
0.0
 10
1.994585197271135
 20
-21.02830598619686
 30
0.0
 10
1.979632960051059
 20
-21.01707721460328
 30
0.0
 10
1.963008799959953
 20
-21.0058484430097
 30
0.0
 10
1.944796213104645
 20
-20.99461967141612
 30
0.0
  0
SPLINE
  5
1CE0
330
1CA4
100
AcDbEntity
  8
0
100
AcDbSpline
210
0.0
220
0.0
230
1.0
 70
     8
 71
     3
 72
    17
 73
    13
 74
     0
 42
0.000000001
 43
0.0000000001
 40
13.75069796564673
 40
13.75069796564673
 40
13.75069796564673
 40
13.75069796564673
 40
14.69456679452353
 40
14.69456679452353
 40
14.69456679452353
 40
15.80925683200909
 40
15.80925683200909
 40
15.80925683200909
 40
16.93775310282961
 40
16.93775310282961
 40
16.93775310282961
 40
17.6652285702512
 40
17.6652285702512
 40
17.6652285702512
 40
17.6652285702512
 10
-1.94276057883388
 20
-19.82597204779876
 30
0.0
 10
-2.184929603957464
 20
-19.67074327839446
 30
0.0
 10
-2.131632505145463
 20
-19.51551450899016
 30
0.0
 10
-1.782130155573951
 20
-19.36028573958586
 30
0.0
 10
-1.369374934481666
 20
-19.1769636957887
 30
0.0
 10
-0.563930532980997
 20
-18.99364165199155
 30
0.0
 10
0.2123529122184476
 20
-18.81031960819439
 30
0.0
 10
0.9982511830807023
 20
-18.62472698977381
 30
0.0
 10
1.714892239991611
 20
-18.43913437135322
 30
0.0
 10
1.979078925612243
 20
-18.25354175293264
 30
0.0
 10
2.149384612549684
 20
-18.1339010590938
 30
0.0
 10
2.126482126009085
 20
-18.01426036525496
 30
0.0
 10
1.938487682545352
 20
-17.89461967141612
 30
0.0
  0
SPLINE
  5
1CE1
330
1CA4
100
AcDbEntity
  8
0
100
AcDbSpline
210
0.0
220
0.0
230
1.0
 70
     8
 71
     3
 72
    14
 73
    10
 74
     0
 42
0.000000001
 43
0.0000000001
 40
2.152323737903119
 40
2.152323737903119
 40
2.152323737903119
 40
2.152323737903119
 40
2.580614154952243
 40
2.580614154952243
 40
2.580614154952243
 40
3.86185354548856
 40
3.86185354548856
 40
3.86185354548856
 40
4.712388980384689
 40
4.712388980384689
 40
4.712388980384689
 40
4.712388980384689
 10
-1.079777561229697
 20
-25.08650146198969
 30
0.0
 10
-0.9801022591028196
 20
-25.01606477380569
 30
0.0
 10
-0.848767142254297
 20
-24.94562808562169
 30
0.0
 10
-0.691619475905454
 20
-24.87519139743769
 30
0.0
 10
-0.2215090736129297
 20
-24.66447862907352
 30
0.0
 10
0.4401452017881985
 20
-24.45376586070936
 30
0.0
 10
0.8574550264189733
 20
-24.24305309234519
 30
0.0
 10
1.134481158928206
 20
-24.10317394298204
 30
0.0
 10
1.288731124564325
 20
-23.96329479361889
 30
0.0
 10
1.293204423331296
 20
-23.82341564425574
 30
0.0
  0
SPLINE
  5
1CE2
330
1CA4
100
AcDbEntity
  8
0
100
AcDbSpline
210
0.0
220
0.0
230
1.0
 70
     8
 71
     3
 72
    14
 73
    10
 74
     0
 42
0.000000001
 43
0.0000000001
 40
8.435509045082707
 40
8.435509045082707
 40
8.435509045082707
 40
8.435509045082707
 40
8.93794788711277
 40
8.93794788711277
 40
8.93794788711277
 40
10.2555136650436
 40
10.2555136650436
 40
10.2555136650436
 40
10.99557428756427
 40
10.99557428756427
 40
10.99557428756427
 40
10.99557428756427
 10
-1.079483766327719
 20
-21.98650146198968
 30
0.0
 10
-0.9615550331343886
 20
-21.90387031583555
 30
0.0
 10
-0.8006030191233781
 20
-21.82123916968141
 30
0.0
 10
-0.6081745776063845
 20
-21.73860802352728
 30
0.0
 10
-0.1035616614971127
 20
-21.521921013574
 30
0.0
 10
0.5749489985474781
 20
-21.3052340036207
 30
0.0
 10
0.9599559844417168
 20
-21.08854699366741
 30
0.0
 10
1.176209711146096
 20
-20.96683654386352
 30
0.0
 10
1.289362891710552
 20
-20.84512609405963
 30
0.0
 10
1.291351832967899
 20
-20.72341564425574
 30
0.0
  0
SPLINE
  5
1CE3
330
1CA4
100
AcDbEntity
  8
0
100
AcDbSpline
210
0.0
220
0.0
230
1.0
 70
     8
 71
     3
 72
    14
 73
    10
 74
     0
 42
0.000000001
 43
0.0000000001
 40
14.71869435226229
 40
14.71869435226229
 40
14.71869435226229
 40
14.71869435226229
 40
15.34791881266421
 40
15.34791881266421
 40
15.34791881266421
 40
16.6275370136005
 40
16.6275370136005
 40
16.6275370136005
 40
17.27875959474386
 40
17.27875959474386
 40
17.27875959474386
 40
17.27875959474386
 10
-1.079371648704192
 20
-18.88650146198969
 30
0.0
 10
-0.9297992475360706
 20
-18.78301913936281
 30
0.0
 10
-0.7131916284176648
 20
-18.67953681673594
 30
0.0
 10
-0.4580105900328077
 20
-18.57605449410906
 30
0.0
 10
0.0609366566182657
 20
-18.36560834676139
 30
0.0
 10
0.6978302756455999
 20
-18.1551621994137
 30
0.0
 10
1.033946308577649
 20
-17.94471605206602
 30
0.0
 10
1.205002292596569
 20
-17.83761591612926
 30
0.0
 10
1.291303124692999
 20
-17.73051578019249
 30
0.0
 10
1.291671001795307
 20
-17.62341564425573
 30
0.0
  0
SPLINE
  5
1CE4
330
1CA4
100
AcDbEntity
  8
0
100
AcDbSpline
210
0.0
220
0.0
230
1.0
 70
     8
 71
     3
 72
    14
 73
    10
 74
     0
 42
0.000000001
 43
0.0000000001
 40
-16.69723218363564
 40
-16.69723218363564
 40
-16.69723218363564
 40
-16.69723218363564
 40
-15.61662056507088
 40
-15.61662056507088
 40
-15.61662056507088
 40
-14.34074377278571
 40
-14.34074377278571
 40
-14.34074377278571
 40
-14.13716694115407
 40
-14.13716694115407
 40
-14.13716694115407
 40
-14.13716694115407
 10
1.084840701822735
 20
-18.83409025722519
 30
0.0
 10
0.8234575885462518
 20
-19.01180776057088
 30
0.0
 10
0.3477324531103631
 20
-19.18952526391657
 30
0.0
 10
-0.1185804572919686
 20
-19.36724276726225
 30
0.0
 10
-0.6691555298749409
 20
-19.57707360213962
 30
0.0
 10
-1.161376893698346
 20
-19.78690443701698
 30
0.0
 10
-1.273154614245296
 20
-19.99673527189434
 30
0.0
 10
-1.290989686043412
 20
-20.03021553958261
 30
0.0
 10
-1.298914177746997
 20
-20.06369580727088
 30
0.0
 10
-1.297662862182542
 20
-20.09717607495915
 30
0.0
  0
SPLINE
  5
1CE5
330
1CA4
100
AcDbEntity
  8
0
100
AcDbSpline
210
0.0
220
0.0
230
1.0
 70
     8
 71
     3
 72
    14
 73
    10
 74
     0
 42
0.000000001
 43
0.0000000001
 40
-10.41404687645605
 40
-10.41404687645605
 40
-10.41404687645605
 40
-10.41404687645605
 40
-9.222960445515843
 40
-9.222960445515843
 40
-9.222960445515843
 40
-7.934602533741209
 40
-7.934602533741209
 40
-7.934602533741209
 40
-7.853981633974481
 40
-7.853981633974481
 40
-7.853981633974481
 40
-7.853981633974481
 10
1.085675872899399
 20
-21.9340902572252
 30
0.0
 10
0.7986680781701326
 20
-22.12997646013015
 30
0.0
 10
0.2450764890837643
 20
-22.32586266303509
 30
0.0
 10
-0.260585373920072
 20
-22.52174886594003
 30
0.0
 10
-0.8075427104833295
 20
-22.73363234707487
 30
0.0
 10
-1.250816490916438
 20
-22.9455158282097
 30
0.0
 10
-1.295777463693968
 20
-23.15739930934454
 30
0.0
 10
-1.298590962991473
 20
-23.17065823121607
 30
0.0
 10
-1.299832383649315
 20
-23.18391715308761
 30
0.0
 10
-1.299559411124204
 20
-23.19717607495915
 30
0.0
  0
SPLINE
  5
1CE6
330
1CA4
100
AcDbEntity
  8
0
100
AcDbSpline
210
0.0
220
0.0
230
1.0
 70
     8
 71
     3
 72
    17
 73
    13
 74
     0
 42
0.000000001
 43
0.0000000001
 40
-4.130861569276463
 40
-4.130861569276463
 40
-4.130861569276463
 40
-4.130861569276463
 40
-4.130555297895231
 40
-4.130555297895231
 40
-4.130555297895231
 40
-2.850937096958945
 40
-2.850937096958945
 40
-2.850937096958945
 40
-1.589467913861974
 40
-1.589467913861974
 40
-1.589467913861974
 40
-1.570796326794894
 40
-1.570796326794894
 40
-1.570796326794894
 40
-1.570796326794894
 10
1.086311993881826
 20
-25.0340902572252
 30
0.0
 10
1.086239097170096
 20
-25.03414062664959
 30
0.0
 10
1.086166180883571
 20
-25.03419099607399
 30
0.0
 10
1.086093245021962
 20
-25.03424136549837
 30
0.0
 10
0.7813633168116462
 20
-25.24468751284605
 30
0.0
 10
0.1586888878650504
 20
-25.45513366019374
 30
0.0
 10
-0.3725544507643102
 20
-25.66557980754142
 30
0.0
 10
-0.8962630850398673
 20
-25.87304116545766
 30
0.0
 10
-1.289567417586582
 20
-26.0805025233739
 30
0.0
 10
-1.299773398277083
 20
-26.28796388129015
 30
0.0
 10
-1.29992446170346
 20
-26.29103461251315
 30
0.0
 10
-1.29999137464943
 20
-26.29410534373616
 30
0.0
 10
-1.299974917677161
 20
-26.29717607495915
 30
0.0
  0
SPLINE
  5
1CE7
330
1CA4
100
AcDbEntity
  8
0
100
AcDbSpline
210
0.0
220
0.0
230
1.0
 70
     8
 71
     3
 72
     8
 73
     4
 74
     0
 42
0.000000001
 43
0.0000000001
 40
0.0
 40
0.0
 40
0.0
 40
0.0
 40
0.1027150179834989
 40
0.1027150179834989
 40
0.1027150179834989
 40
0.1027150179834989
 10
-1.945116066041919
 20
-25.64461967141612
 30
0.0
 10
-1.654824479336276
 20
-25.46367425115388
 30
0.0
 10
-1.365812115077672
 20
-25.27961385061427
 30
0.0
 10
-1.086312001664424
 20
-25.08650146198969
 30
0.0
  0
SPLINE
  5
1CE8
330
1CA4
100
AcDbEntity
  8
0
100
AcDbSpline
210
0.0
220
0.0
230
1.0
 70
     8
 71
     3
 72
     8
 73
     4
 74
     0
 42
0.000000001
 43
0.0000000001
 40
0.0
 40
0.0
 40
0.0
 40
0.0
 40
0.1027150179834989
 40
0.1027150179834989
 40
0.1027150179834989
 40
0.1027150179834989
 10
-1.945116066041919
 20
-22.54461967141612
 30
0.0
 10
-1.654824479336276
 20
-22.36367425115388
 30
0.0
 10
-1.365812115077671
 20
-22.17961385061427
 30
0.0
 10
-1.086312001664424
 20
-21.98650146198969
 30
0.0
  0
SPLINE
  5
1CE9
330
1CA4
100
AcDbEntity
  8
0
100
AcDbSpline
210
0.0
220
0.0
230
1.0
 70
     8
 71
     3
 72
     8
 73
     4
 74
     0
 42
0.000000001
 43
0.0000000001
 40
0.0
 40
0.0
 40
0.0
 40
0.0
 40
0.1027150179834989
 40
0.1027150179834989
 40
0.1027150179834989
 40
0.1027150179834989
 10
-1.945116066041919
 20
-19.44461967141611
 30
0.0
 10
-1.654824479336276
 20
-19.26367425115388
 30
0.0
 10
-1.365812115077671
 20
-19.07961385061427
 30
0.0
 10
-1.086312001664424
 20
-18.88650146198968
 30
0.0
  0
SPLINE
  5
1CEA
330
1CA4
100
AcDbEntity
  8
0
100
AcDbSpline
210
0.0
220
0.0
230
1.0
 70
     8
 71
     3
 72
     8
 73
     4
 74
     0
 42
0.000000001
 43
0.0000000001
 40
0.0259693006477674
 40
0.0259693006477674
 40
0.0259693006477674
 40
0.0259693006477674
 40
0.1027150179834988
 40
0.1027150179834988
 40
0.1027150179834988
 40
0.1027150179834988
 10
1.299999999999998
 20
-23.68133458071906
 30
0.0
 10
1.512035105145482
 20
-23.82248622369968
 30
0.0
 10
1.728218513029454
 20
-23.95942243980125
 30
0.0
 10
1.94511606604192
 20
-24.09461967141612
 30
0.0
  0
SPLINE
  5
1CEB
330
1CA4
100
AcDbEntity
  8
0
100
AcDbSpline
210
0.0
220
0.0
230
1.0
 70
     8
 71
     3
 72
     8
 73
     4
 74
     0
 42
0.000000001
 43
0.0000000001
 40
0.0259693006477674
 40
0.0259693006477674
 40
0.0259693006477674
 40
0.0259693006477674
 40
0.1027150179834988
 40
0.1027150179834988
 40
0.1027150179834988
 40
0.1027150179834988
 10
1.299999999999998
 20
-20.58133458071905
 30
0.0
 10
1.512035105145482
 20
-20.72248622369968
 30
0.0
 10
1.728218513029454
 20
-20.85942243980125
 30
0.0
 10
1.945116066041919
 20
-20.99461967141612
 30
0.0
  0
SPLINE
  5
1CEC
330
1CA4
100
AcDbEntity
  8
0
100
AcDbSpline
210
0.0
220
0.0
230
1.0
 70
     8
 71
     3
 72
     8
 73
     4
 74
     0
 42
0.000000001
 43
0.0000000001
 40
0.0259693006477675
 40
0.0259693006477675
 40
0.0259693006477675
 40
0.0259693006477675
 40
0.1027150179834989
 40
0.1027150179834989
 40
0.1027150179834989
 40
0.1027150179834989
 10
1.299999999999998
 20
-17.48133458071905
 30
0.0
 10
1.512035105145482
 20
-17.62248622369967
 30
0.0
 10
1.728218513029454
 20
-17.75942243980125
 30
0.0
 10
1.945116066041919
 20
-17.89461967141611
 30
0.0
  0
SPLINE
  5
1CED
330
1CA4
100
AcDbEntity
  8
0
100
AcDbSpline
210
0.0
220
0.0
230
1.0
 70
     8
 71
     3
 72
     8
 73
     4
 74
     0
 42
0.000000001
 43
0.0000000001
 40
0.0
 40
0.0
 40
0.0
 40
0.0
 40
0.1027150179834989
 40
0.1027150179834989
 40
0.1027150179834989
 40
0.1027150179834989
 10
1.945116066041921
 20
-24.47597204779877
 30
0.0
 10
1.654824479336276
 20
-24.65691746806101
 30
0.0
 10
1.365812115077673
 20
-24.84097786860062
 30
0.0
 10
1.086312001664425
 20
-25.0340902572252
 30
0.0
  0
SPLINE
  5
1CEE
330
1CA4
100
AcDbEntity
  8
0
100
AcDbSpline
210
0.0
220
0.0
230
1.0
 70
     8
 71
     3
 72
     8
 73
     4
 74
     0
 42
0.000000001
 43
0.0000000001
 40
0.0
 40
0.0
 40
0.0
 40
0.0
 40
0.1027150179834988
 40
0.1027150179834988
 40
0.1027150179834988
 40
0.1027150179834988
 10
1.945116066041919
 20
-21.37597204779877
 30
0.0
 10
1.654824479336276
 20
-21.556917468061
 30
0.0
 10
1.365812115077673
 20
-21.74097786860062
 30
0.0
 10
1.086312001664425
 20
-21.9340902572252
 30
0.0
  0
SPLINE
  5
1CEF
330
1CA4
100
AcDbEntity
  8
0
100
AcDbSpline
210
0.0
220
0.0
230
1.0
 70
     8
 71
     3
 72
     8
 73
     4
 74
     0
 42
0.000000001
 43
0.0000000001
 40
0.0
 40
0.0
 40
0.0
 40
0.0
 40
0.1027150179834989
 40
0.1027150179834989
 40
0.1027150179834989
 40
0.1027150179834989
 10
1.945116066041919
 20
-18.27597204779877
 30
0.0
 10
1.654824479336276
 20
-18.456917468061
 30
0.0
 10
1.365812115077671
 20
-18.64097786860061
 30
0.0
 10
1.086312001664424
 20
-18.8340902572252
 30
0.0
  0
SPLINE
  5
1CF0
330
1CA4
100
AcDbEntity
  8
0
100
AcDbSpline
210
0.0
220
0.0
230
1.0
 70
     8
 71
     3
 72
     8
 73
     4
 74
     0
 42
0.000000001
 43
0.0000000001
 40
0.0259693006477677
 40
0.0259693006477677
 40
0.0259693006477677
 40
0.0259693006477677
 40
0.1027150179834988
 40
0.1027150179834988
 40
0.1027150179834988
 40
0.1027150179834988
 10
-1.299999999999999
 20
-20.23925713849583
 30
0.0
 10
-1.512035105145483
 20
-20.09810549551521
 30
0.0
 10
-1.728218513029455
 20
-19.96116927941364
 30
0.0
 10
-1.945116066041919
 20
-19.82597204779876
 30
0.0
  0
SPLINE
  5
1CF1
330
1CA4
100
AcDbEntity
  8
0
100
AcDbSpline
210
0.0
220
0.0
230
1.0
 70
     8
 71
     3
 72
     8
 73
     4
 74
     0
 42
0.000000001
 43
0.0000000001
 40
0.0259693006477676
 40
0.0259693006477676
 40
0.0259693006477676
 40
0.0259693006477676
 40
0.1027150179834988
 40
0.1027150179834988
 40
0.1027150179834988
 40
0.1027150179834988
 10
-1.299999999999999
 20
-23.33925713849583
 30
0.0
 10
-1.512035105145483
 20
-23.19810549551521
 30
0.0
 10
-1.728218513029454
 20
-23.06116927941364
 30
0.0
 10
-1.945116066041919
 20
-22.92597204779877
 30
0.0
  0
SPLINE
  5
1CF2
330
1CA4
100
AcDbEntity
  8
0
100
AcDbSpline
210
0.0
220
0.0
230
1.0
 70
     8
 71
     3
 72
     8
 73
     4
 74
     0
 42
0.000000001
 43
0.0000000001
 40
0.0259693006477676
 40
0.0259693006477676
 40
0.0259693006477676
 40
0.0259693006477676
 40
0.1027150179834989
 40
0.1027150179834989
 40
0.1027150179834989
 40
0.1027150179834989
 10
-1.299999999999999
 20
-26.43925713849584
 30
0.0
 10
-1.512035105145483
 20
-26.29810549551522
 30
0.0
 10
-1.728218513029454
 20
-26.16116927941364
 30
0.0
 10
-1.945116066041919
 20
-26.02597204779878
 30
0.0
  0
SPLINE
  5
1CF3
330
1CA4
100
AcDbEntity
  8
0
100
AcDbSpline
210
0.0
220
0.0
230
1.0
 70
     8
 71
     3
 72
    17
 73
    13
 74
     0
 42
0.000000001
 43
0.0000000001
 40
0.4586657260709626
 40
0.4586657260709626
 40
0.4586657260709626
 40
0.4586657260709626
 40
1.140855774200599
 40
1.140855774200599
 40
1.140855774200599
 40
2.289013738354336
 40
2.289013738354336
 40
2.289013738354336
 40
3.482874115900787
 40
3.482874115900787
 40
3.482874115900787
 40
4.013272090678361
 40
4.013272090678361
 40
4.013272090678361
 40
4.013272090678361
 10
-1.770058058290544
 20
-16.77370335565382
 30
0.0
 10
-1.939378453623565
 20
-16.66151030675629
 30
0.0
 10
-1.964240883748268
 20
-16.54931725785876
 30
0.0
 10
-1.835635808228047
 20
-16.43712420896123
 30
0.0
 10
-1.619187412221727
 20
-16.24829802633432
 30
0.0
 10
-0.9949084871604807
 20
-16.05947184370742
 30
0.0
 10
-0.364576212784288
 20
-15.87064566108051
 30
0.0
 10
0.2908464298841659
 20
-15.6743032546175
 30
0.0
 10
0.9090245870392882
 20
-15.47796084815449
 30
0.0
 10
1.159724222503958
 20
-15.28161844169147
 30
0.0
 10
1.271102890754268
 20
-15.19438913354997
 30
0.0
 10
1.315833175788664
 20
-15.10715982540846
 30
0.0
 10
1.296798207729717
 20
-15.01993051726695
 30
0.0
  0
SPLINE
  5
1CF4
330
1CA4
100
AcDbEntity
  8
0
100
AcDbSpline
210
0.0
220
0.0
230
1.0
 70
     8
 71
     3
 72
    20
 73
    16
 74
     0
 42
0.000000001
 43
0.0000000001
 40
0.1913802912358491
 40
0.1913802912358491
 40
0.1913802912358491
 40
0.1913802912358491
 40
0.220394437582892
 40
0.220394437582892
 40
0.2754930469786151
 40
0.2754930469786151
 40
0.3305916563743381
 40
0.3305916563743381
 40
0.3856902657700612
 40
0.3856902657700612
 40
0.4407888751657842
 40
0.4407888751657842
 40
0.4929868649324292
 40
0.4929868649324292
 40
0.5451848546990743
 40
0.5451848546990743
 40
0.5451848546990743
 40
0.5451848546990743
 10
-1.160883760837494
 20
-16.00520685302337
 30
0.0
 10
-1.119300158281342
 20
-15.97832209048509
 30
0.0
 10
-1.068933489280275
 20
-15.95144505130406
 30
0.0
 10
-0.8995716614078903
 20
-15.87310673102014
 30
0.0
 10
-0.7618890882298119
 20
-15.82231453010988
 30
0.0
 10
-0.4498392828530965
 20
-15.71968247455719
 30
0.0
 10
-0.2787104178634692
 20
-15.66889027364693
 30
0.0
 10
0.072877424580427
 20
-15.56625821809424
 30
0.0
 10
0.2496877199319074
 20
-15.51546601718398
 30
0.0
 10
0.5837701092436899
 20
-15.41283396163129
 30
0.0
 10
0.7375751878878032
 20
-15.36204176072103
 30
0.0
 10
0.9930425934984599
 20
-15.2621111939915
 30
0.0
 10
1.094644603520867
 20
-15.213942664059
 30
0.0
 10
1.241346392004447
 20
-15.11671358615263
 30
0.0
 10
1.285080179588501
 20
-15.06854505622014
 30
0.0
 10
1.296798207729717
 20
-15.01993051726695
 30
0.0
  0
SPLINE
  5
1CF5
330
1CA4
100
AcDbEntity
  8
0
100
AcDbSpline
210
0.0
220
0.0
230
1.0
 70
     8
 71
     3
 72
    20
 73
    16
 74
     0
 42
0.000000001
 43
0.0000000001
 40
0.0880312261747746
 40
0.0880312261747746
 40
0.0880312261747746
 40
0.0880312261747746
 40
0.1239030863523552
 40
0.1239030863523552
 40
0.1858546295285329
 40
0.1858546295285329
 40
0.2478061727047106
 40
0.2478061727047106
 40
0.3097577158808882
 40
0.3097577158808882
 40
0.3717092590570659
 40
0.3717092590570659
 40
0.4336608022332436
 40
0.4336608022332436
 40
0.4425231983836543
 40
0.4425231983836543
 40
0.4425231983836543
 40
0.4425231983836543
 10
1.009841032618314
 20
-15.3917218082117
 30
0.0
 10
0.9420205639269461
 20
-15.44212741157706
 30
0.0
 10
0.8638751333554541
 20
-15.49247983841502
 30
0.0
 10
0.6271111464330997
 20
-15.63070953493072
 30
0.0
 10
0.4547933396059087
 20
-15.71724694093413
 30
0.0
 10
0.0890024432469816
 20
-15.89232862319691
 30
0.0
 10
-0.1001992455427975
 20
-15.97886602920033
 30
0.0
 10
-0.4653080730968001
 20
-16.1539477114631
 30
0.0
 10
-0.6369517757492103
 20
-16.24048511746652
 30
0.0
 10
-0.9349149095635409
 20
-16.41556679972929
 30
0.0
 10
-1.057754975974946
 20
-16.50210420573271
 30
0.0
 10
-1.234331848647029
 20
-16.67718588799548
 30
0.0
 10
-1.286006737587043
 20
-16.7637232939989
 30
0.0
 10
-1.299178681090647
 20
-16.86378717448768
 30
0.0
 10
-1.299999975366628
 20
-16.87628967919241
 30
0.0
 10
-1.29999988110381
 20
-16.88877752435969
 30
0.0
  0
SPLINE
  5
1CF6
330
1CA4
100
AcDbEntity
  8
0
100
AcDbSpline
210
0.0
220
0.0
230
1.0
 70
     8
 71
     3
 72
     8
 73
     4
 74
     0
 42
0.000000001
 43
0.0000000001
 40
0.0
 40
0.0
 40
0.0
 40
0.0
 40
0.068164970407789
 40
0.068164970407789
 40
0.068164970407789
 40
0.068164970407789
 10
-1.737776752974247
 20
-16.36686671391731
 30
0.0
 10
-1.544124928047145
 20
-16.24821488858968
 30
0.0
 10
-1.351210847892988
 20
-16.12826014353815
 30
0.0
 10
-1.160884378858987
 20
-16.005206933269
 30
0.0
  0
SPLINE
  5
1CF7
330
1CA4
100
AcDbEntity
  8
0
100
AcDbSpline
210
0.0
220
0.0
230
1.0
 70
     8
 71
     3
 72
     8
 73
     4
 74
     0
 42
0.000000001
 43
0.0000000001
 40
0.0
 40
0.0
 40
0.0
 40
0.0
 40
0.0155325341198441
 40
0.0155325341198441
 40
0.0155325341198441
 40
0.0155325341198441
 10
1.133413881782712
 20
-15.30135855835607
 30
0.0
 10
1.091921810148122
 20
-15.33123814230881
 30
0.0
 10
1.050704523097807
 20
-15.36135040687481
 30
0.0
 10
1.009841629638363
 20
-15.39172137040032
 30
0.0
  0
SPLINE
  5
1CF8
330
1CA4
100
AcDbEntity
  8
0
100
AcDbSpline
210
0.0
220
0.0
230
1.0
 70
     8
 71
     3
 72
     8
 73
     4
 74
     0
 42
0.000000001
 43
0.0000000001
 40
0.0361561183999096
 40
0.0361561183999096
 40
0.0361561183999096
 40
0.0361561183999096
 40
0.094051686101549
 40
0.094051686101549
 40
0.094051686101549
 40
0.094051686101549
 10
-1.3
 20
-17.09488593641878
 30
0.0
 10
-1.457139645598396
 20
-16.98548381188188
 30
0.0
 10
-1.617433493881307
 20
-16.87878572308213
 30
0.0
 10
-1.778602837505556
 20
-16.77370335565381
 30
0.0
  0
SPLINE
  5
1CF9
330
1CA4
100
AcDbEntity
  8
0
100
AcDbSpline
210
0.0
220
0.0
230
1.0
 70
     8
 71
     3
 72
    18
 73
    14
 74
     0
 42
0.000000001
 43
0.0000000001
 40
0.0679300628837154
 40
0.0679300628837154
 40
0.0679300628837154
 40
0.0679300628837154
 40
0.0841772035049299
 40
0.0841772035049299
 40
0.124598926762099
 40
0.124598926762099
 40
0.1639741273576327
 40
0.1639741273576327
 40
0.2023659199623206
 40
0.2023659199623206
 40
0.2398538914417403
 40
0.2398538914417403
 40
0.2660935576236781
 40
0.2660935576236781
 40
0.2660935576236781
 40
0.2660935576236781
 10
0.5623826490429405
 20
-31.1810577798445
 30
0.0
 10
0.526938124080266
 20
-31.2093324451939
 30
0.0
 10
0.4890071109161646
 20
-31.23785982592568
 30
0.0
 10
0.3494135650694036
 20
-31.33867648366059
 30
0.0
 10
0.2396015017057414
 20
-31.41099692782313
 30
0.0
 10
0.0195416184529573
 20
-31.55887438452163
 30
0.0
 10
-0.087546105002391
 20
-31.63226999049126
 30
0.0
 10
-0.2788953475122265
 20
-31.78262502081209
 30
0.0
 10
-0.3608493818594034
 20
-31.85729195444435
 30
0.0
 10
-0.4845291891151752
 20
-32.01060189984185
 30
0.0
 10
-0.5252257933371258
 20
-32.08678925466364
 30
0.0
 10
-0.5540159618516637
 20
-32.2215742006025
 30
0.0
 10
-0.5539346749153412
 20
-32.2772951418247
 30
0.0
 10
-0.5423391993735585
 20
-32.3343017827974
 30
0.0
  0
SPLINE
  5
1CFA
330
1CA4
100
AcDbEntity
  8
0
100
AcDbSpline
210
0.0
220
0.0
230
1.0
 70
     8
 71
     3
 72
    14
 73
    10
 74
     0
 42
0.000000001
 43
0.0000000001
 40
0.1219096538423456
 40
0.1219096538423456
 40
0.1219096538423456
 40
0.1219096538423456
 40
1.39954612090666
 40
1.39954612090666
 40
1.39954612090666
 40
2.680930343374174
 40
2.680930343374174
 40
2.680930343374174
 40
3.734724749806044
 40
3.734724749806044
 40
3.734724749806044
 40
3.734724749806044
 10
1.377664625642493
 20
-30.57044368406831
 30
0.0
 10
1.227601655044916
 20
-30.78056391524965
 30
0.0
 10
0.6862570116417656
 20
-30.99068414643099
 30
0.0
 10
0.1507090563112924
 20
-31.20080437761234
 30
0.0
 10
-0.3864098488120229
 20
-31.41154096505153
 30
0.0
 10
-0.8713692861123927
 20
-31.62227755249072
 30
0.0
 10
-1.015211761713504
 20
-31.83301413992991
 30
0.0
 10
-1.13350602001479
 20
-32.00632128167568
 30
0.0
 10
-1.020978534470821
 20
-32.17962842342144
 30
0.0
 10
-0.7864374853407235
 20
-32.3529355651672
 30
0.0
  0
SPLINE
  5
1CFB
330
1CA4
100
AcDbEntity
  8
0
100
AcDbSpline
210
0.0
220
0.0
230
1.0
 70
     8
 71
     3
 72
    18
 73
    14
 74
     0
 42
0.000000001
 43
0.0000000001
 40
0.2945724974875137
 40
0.2945724974875137
 40
0.2945724974875137
 40
0.2945724974875137
 40
0.3146384564017661
 40
0.3146384564017661
 40
0.3573075434508681
 40
0.3573075434508681
 40
0.4010760595425451
 40
0.4010760595425451
 40
0.4459915586278264
 40
0.4459915586278264
 40
0.4777634970719817
 40
0.4777634970719817
 40
0.4902538628414006
 40
0.4902538628414006
 40
0.4902538628414006
 40
0.4902538628414006
 10
-0.4536725137796075
 20
-31.3410610265931
 30
0.0
 10
-0.4145707660933572
 20
-31.30401991160497
 30
0.0
 10
-0.3707893112604632
 20
-31.26734744984011
 30
0.0
 10
-0.2216572954133325
 20
-31.15300041049406
 30
0.0
 10
-0.1054897322454822
 20
-31.07790562555138
 30
0.0
 10
0.1409662837787077
 20
-30.92659757999822
 30
0.0
 10
0.2680269583003145
 20
-30.85252305876811
 30
0.0
 10
0.5104276975653399
 20
-30.7032042169034
 30
0.0
 10
0.6220434237786257
 20
-30.63000269150037
 30
0.0
 10
0.7796976099872121
 20
-30.50563042811725
 30
0.0
 10
0.8343691429498523
 20
-30.45508161629153
 30
0.0
 10
0.8931733838457244
 20
-30.38510266766561
 30
0.0
 10
0.907763466379904
 20
-30.36549925184016
 30
0.0
 10
0.9202993762258214
 20
-30.34599920224766
 30
0.0
  0
SPLINE
  5
1CFC
330
1CA4
100
AcDbEntity
  8
0
100
AcDbSpline
210
0.0
220
0.0
230
1.0
 70
     8
 71
     3
 72
    10
 73
     6
 74
     0
 42
0.000000001
 43
0.0000000001
 40
0.0391699244884969
 40
0.0391699244884969
 40
0.0391699244884969
 40
0.0391699244884969
 40
0.0444437155105322
 40
0.0444437155105322
 40
0.0775365040287736
 40
0.0775365040287736
 40
0.0775365040287736
 40
0.0775365040287736
 10
-0.4919804265281104
 20
-32.58183894740096
 30
0.0
 10
-0.5050340938199925
 20
-32.57096110372906
 30
0.0
 10
-0.5181819272605271
 20
-32.56015068433048
 30
0.0
 10
-0.6143685342966976
 20
-32.4819937007571
 30
0.0
 10
-0.7010538157999347
 20
-32.41667627410934
 30
0.0
 10
-0.7893555348455134
 20
-32.3529355651672
 30
0.0
  0
SPLINE
  5
1CFD
330
1CA4
100
AcDbEntity
  8
0
100
AcDbSpline
210
0.0
220
0.0
230
1.0
 70
     8
 71
     3
 72
     8
 73
     4
 74
     0
 42
0.000000001
 43
0.0000000001
 40
0.0
 40
0.0
 40
0.0
 40
0.0
 40
0.0785353615715051
 40
0.0785353615715051
 40
0.0785353615715051
 40
0.0785353615715051
 10
1.195813771216642
 20
-30.73113401055517
 30
0.0
 10
0.9778290315126424
 20
-30.87440841284043
 30
0.0
 10
0.7613742027734021
 20
-31.02234810788227
 30
0.0
 10
0.5623870154902102
 20
-31.18106883132162
 30
0.0
  0
SPLINE
  5
1CFE
330
1CA4
100
AcDbEntity
  8
0
100
AcDbSpline
210
0.0
220
0.0
230
1.0
 70
     8
 71
     3
 72
     8
 73
     4
 74
     0
 42
0.000000001
 43
0.0000000001
 40
0.0
 40
0.0
 40
0.0
 40
0.0
 40
0.0561217333463671
 40
0.0561217333463671
 40
0.0561217333463671
 40
0.0561217333463671
 10
-0.8692918567386643
 20
-31.68794141801234
 30
0.0
 10
-0.7230606096940797
 20
-31.57718016448348
 30
0.0
 10
-0.5812582978709333
 20
-31.46195139852711
 30
0.0
 10
-0.4536658196713108
 20
-31.34107414110401
 30
0.0
  0
ENDBLK
  5
1CA6
330
1CA4
100
AcDbEntity
  8
0
100
AcDbBlockEnd
  0
BLOCK
  5
1DE8
330
1DE7
100
AcDbEntity
  8
0
100
AcDbBlockBegin
  2
DSIX442X35T-20-Top
 70
     0
 10
0.0
 20
0.0
 30
0.0
  3
DSIX442X35T-20-Top
  1

  0
LINE
  5
1DEA
330
1DE7
100
AcDbEntity
  8
0
100
AcDbLine
 10
2.224482758620691
 20
0.2123999999999977
 30
0.0
 11
2.803347158700586
 21
0.2123999999999983
 31
0.0
  0
LINE
  5
1DEB
330
1DE7
100
AcDbEntity
  8
0
100
AcDbLine
 10
2.224482758620691
 20
0.0923999999999976
 30
0.0
 11
2.224482758620691
 21
0.2123999999999977
 31
0.0
  0
LINE
  5
1DEC
330
1DE7
100
AcDbEntity
  8
0
100
AcDbLine
 10
2.734065130458713
 20
0.0923999999999987
 30
0.0
 11
2.224482758620691
 21
0.0923999999999976
 31
0.0
  0
LINE
  5
1DED
330
1DE7
100
AcDbEntity
  8
0
100
AcDbLine
 10
2.627370806966226
 20
-0.0924000000000047
 30
0.0
 11
2.734065130458713
 21
0.0923999999999987
 31
0.0
  0
LINE
  5
1DEE
330
1DE7
100
AcDbEntity
  8
0
100
AcDbLine
 10
2.224482758620691
 20
-0.0924000000000051
 30
0.0
 11
2.627370806966226
 21
-0.0924000000000047
 31
0.0
  0
LINE
  5
1DEF
330
1DE7
100
AcDbEntity
  8
0
100
AcDbLine
 10
2.224482758620691
 20
-0.2124000000000052
 30
0.0
 11
2.224482758620691
 21
-0.0924000000000051
 31
0.0
  0
LINE
  5
1DF0
330
1DE7
100
AcDbEntity
  8
0
100
AcDbLine
 10
2.558088778724352
 20
-0.2124000000000044
 30
0.0
 11
2.224482758620691
 21
-0.2124000000000052
 31
0.0
  0
LINE
  5
1DF1
330
1DE7
100
AcDbEntity
  8
0
100
AcDbLine
 10
2.409003992252904
 20
-0.4706224399395012
 30
0.0
 11
2.558088778724352
 21
-0.2124000000000044
 31
0.0
  0
LINE
  5
1DF2
330
1DE7
100
AcDbEntity
  8
0
100
AcDbLine
 10
2.512927042229859
 20
-0.5306224373018767
 30
0.0
 11
2.409003992252904
 21
-0.4706224399395012
 31
0.0
  0
LINE
  5
1DF3
330
1DE7
100
AcDbEntity
  8
0
100
AcDbLine
 10
2.696652841299414
 20
-0.2124000000000042
 30
0.0
 11
2.512927042229859
 21
-0.5306224373018767
 31
0.0
  0
LINE
  5
1DF4
330
1DE7
100
AcDbEntity
  8
0
100
AcDbLine
 10
3.27551724137931
 20
-0.2124000000000036
 30
0.0
 11
2.696652841299414
 21
-0.2124000000000042
 31
0.0
  0
LINE
  5
1DF5
330
1DE7
100
AcDbEntity
  8
0
100
AcDbLine
 10
3.27551724137931
 20
-0.0924000000000035
 30
0.0
 11
3.27551724137931
 21
-0.2124000000000036
 31
0.0
  0
LINE
  5
1DF6
330
1DE7
100
AcDbEntity
  8
0
100
AcDbLine
 10
2.765934869541288
 20
-0.0924000000000046
 30
0.0
 11
3.27551724137931
 21
-0.0924000000000035
 31
0.0
  0
LINE
  5
1DF7
330
1DE7
100
AcDbEntity
  8
0
100
AcDbLine
 10
2.872629193033777
 20
0.0923999999999988
 30
0.0
 11
2.765934869541288
 21
-0.0924000000000046
 31
0.0
  0
LINE
  5
1DF8
330
1DE7
100
AcDbEntity
  8
0
100
AcDbLine
 10
3.27551724137931
 20
0.0923999999999992
 30
0.0
 11
2.872629193033777
 21
0.0923999999999988
 31
0.0
  0
LINE
  5
1DF9
330
1DE7
100
AcDbEntity
  8
0
100
AcDbLine
 10
3.27551724137931
 20
0.2123999999999993
 30
0.0
 11
3.27551724137931
 21
0.0923999999999992
 31
0.0
  0
LINE
  5
1DFA
330
1DE7
100
AcDbEntity
  8
0
100
AcDbLine
 10
2.941911221275652
 20
0.2123999999999985
 30
0.0
 11
3.27551724137931
 21
0.2123999999999993
 31
0.0
  0
LINE
  5
1DFB
330
1DE7
100
AcDbEntity
  8
0
100
AcDbLine
 10
3.090996007747102
 20
0.4706224399394965
 30
0.0
 11
2.941911221275652
 21
0.2123999999999985
 31
0.0
  0
LINE
  5
1DFC
330
1DE7
100
AcDbEntity
  8
0
100
AcDbLine
 10
2.987072957770142
 20
0.5306224373018776
 30
0.0
 11
3.090996007747102
 21
0.4706224399394965
 31
0.0
  0
LINE
  5
1DFD
330
1DE7
100
AcDbEntity
  8
0
100
AcDbLine
 10
2.803347158700586
 20
0.2123999999999983
 30
0.0
 11
2.987072957770142
 21
0.5306224373018776
 31
0.0
  0
LINE
  5
1DFE
330
1DE7
100
AcDbEntity
  8
0
100
AcDbLine
 10
-2.39100607296043
 20
-0.1086127979783138
 30
0.0
 11
-2.714176809483367
 21
-0.1086127979783134
 31
0.0
  0
LINE
  5
1DFF
330
1DE7
100
AcDbEntity
  8
0
100
AcDbLine
 10
-2.391006072960431
 20
-0.2938262153723549
 30
0.0
 11
-2.39100607296043
 21
-0.1086127979783138
 31
0.0
  0
SPLINE
  5
1E00
330
1DE7
100
AcDbEntity
  8
0
100
AcDbSpline
210
0.0
220
0.0
230
1.0
 70
     8
 71
     2
 72
     7
 73
     4
 74
     0
 42
0.000000001
 43
0.0000000001
 40
0.0
 40
0.0
 40
0.0
 40
1.0
 40
2.0
 40
2.0
 40
2.0
 10
-2.711890224083441
 20
-0.3974847535023533
 30
0.0
 10
-2.617378027553148
 20
-0.3974847535023532
 30
0.0
 10
-2.437499976092269
 20
-0.3311737769044867
 30
0.0
 10
-2.391006072960431
 20
-0.293826215372355
 30
0.0
  0
SPLINE
  5
1E01
330
1DE7
100
AcDbEntity
  8
0
100
AcDbSpline
210
0.0
220
0.0
230
1.0
 70
     8
 71
     2
 72
     8
 73
     5
 74
     0
 42
0.000000001
 43
0.0000000001
 40
0.0
 40
0.0
 40
0.0
 40
1.0
 40
2.0
 40
3.0
 40
3.0
 40
3.0
 10
-3.115091449603802
 20
0.0034298866180832
 30
0.0
 10
-3.115091449603802
 20
-0.1299542617109595
 30
0.0
 10
-3.01371949687373
 20
-0.3105945083051475
 30
0.0
 10
-2.820884128146601
 20
-0.3974847535023528
 30
0.0
 10
-2.711890224083441
 20
-0.3974847535023533
 30
0.0
  0
SPLINE
  5
1E02
330
1DE7
100
AcDbEntity
  8
0
100
AcDbSpline
210
0.0
220
0.0
230
1.0
 70
     8
 71
     2
 72
     6
 73
     3
 74
     0
 42
0.000000001
 43
0.0000000001
 40
0.0
 40
0.0
 40
0.0
 40
1.0
 40
1.0
 40
1.0
 10
-3.073170717271817
 20
0.2046494018116096
 30
0.0
 10
-3.115091449603801
 20
0.111661595547935
 30
0.0
 10
-3.115091449603802
 20
0.0034298866180832
 30
0.0
  0
SPLINE
  5
1E03
330
1DE7
100
AcDbEntity
  8
0
100
AcDbSpline
210
0.0
220
0.0
230
1.0
 70
     8
 71
     2
 72
     8
 73
     5
 74
     0
 42
0.000000001
 43
0.0000000001
 40
0.0
 40
0.0
 40
0.0
 40
1.0
 40
2.0
 40
3.0
 40
3.0
 40
3.0
 10
-2.714176809483365
 20
0.4035823316052085
 30
0.0
 10
-2.814024371946819
 20
0.4035823316052091
 30
0.0
 10
-2.958841447275494
 20
0.3487042820069753
 30
0.0
 10
-3.048018277872626
 20
0.2580030611432265
 30
0.0
 10
-3.073170717271817
 20
0.2046494018116096
 30
0.0
  0
SPLINE
  5
1E04
330
1DE7
100
AcDbEntity
  8
0
100
AcDbSpline
210
0.0
220
0.0
230
1.0
 70
     8
 71
     2
 72
     8
 73
     5
 74
     0
 42
0.000000001
 43
0.0000000001
 40
0.0
 40
0.0
 40
0.0
 40
1.0
 40
2.0
 40
3.0
 40
3.0
 40
3.0
 10
-2.396341438893591
 20
0.1871189137455057
 30
0.0
 10
-2.420731683159473
 20
0.263338427076387
 30
0.0
 10
-2.494664611090428
 20
0.3509908674069004
 30
0.0
 10
-2.631097539952705
 20
0.4035823316052087
 30
0.0
 10
-2.714176809483365
 20
0.4035823316052085
 30
0.0
  0
LINE
  5
1E05
330
1DE7
100
AcDbEntity
  8
0
100
AcDbLine
 10
-2.265243875964475
 20
0.2198933044777844
 30
0.0
 11
-2.396341438893591
 21
0.1871189137455057
 31
0.0
  0
SPLINE
  5
1E06
330
1DE7
100
AcDbEntity
  8
0
100
AcDbSpline
210
0.0
220
0.0
230
1.0
 70
     8
 71
     2
 72
     8
 73
     5
 74
     0
 42
0.000000001
 43
0.0000000001
 40
0.0
 40
0.0
 40
0.0
 40
1.0
 40
2.0
 40
3.0
 40
3.0
 40
3.0
 10
-2.714939004616674
 20
0.5171494064682216
 30
0.0
 10
-2.59527436868719
 20
0.5171494064682216
 30
0.0
 10
-2.40320119509337
 20
0.4470274542038108
 30
0.0
 10
-2.293445095896901
 20
0.321265257207856
 30
0.0
 10
-2.265243875964475
 20
0.2198933044777844
 30
0.0
  0
SPLINE
  5
1E07
330
1DE7
100
AcDbEntity
  8
0
100
AcDbSpline
210
0.0
220
0.0
230
1.0
 70
     8
 71
     2
 72
     8
 73
     5
 74
     0
 42
0.000000001
 43
0.0000000001
 40
0.0
 40
0.0
 40
0.0
 40
1.0
 40
2.0
 40
3.0
 40
3.0
 40
3.0
 10
-3.265243890865638
 20
-0.0049542598483133
 30
0.0
 10
-3.265243890865638
 20
0.1413872057469789
 30
0.0
 10
-3.131097547403285
 20
0.3944359900055039
 30
0.0
 10
-2.878810958278068
 20
0.5171494064682221
 30
0.0
 10
-2.714939004616674
 20
0.5171494064682216
 30
0.0
  0
SPLINE
  5
1E08
330
1DE7
100
AcDbEntity
  8
0
100
AcDbSpline
210
0.0
220
0.0
230
1.0
 70
     8
 71
     2
 72
     8
 73
     5
 74
     0
 42
0.000000001
 43
0.0000000001
 40
0.0
 40
0.0
 40
0.0
 40
1.0
 40
2.0
 40
3.0
 40
3.0
 40
3.0
 10
-2.703506077617045
 20
-0.5171493894318368
 30
0.0
 10
-2.865853641011821
 20
-0.5171493894318362
 30
0.0
 10
-3.130335352269979
 20
-0.3906249973025727
 30
0.0
 10
-3.265243890865638
 20
-0.1520579205769141
 30
0.0
 10
-3.265243890865638
 20
-0.0049542598483133
 30
0.0
  0
SPLINE
  5
1E09
330
1DE7
100
AcDbEntity
  8
0
100
AcDbSpline
210
0.0
220
0.0
230
1.0
 70
     8
 71
     2
 72
     7
 73
     4
 74
     0
 42
0.000000001
 43
0.0000000001
 40
0.0
 40
0.0
 40
0.0
 40
1.0
 40
2.0
 40
2.0
 40
2.0
 10
-2.248475583031683
 20
-0.3608993871035311
 30
0.0
 10
-2.355945096828226
 20
-0.4386432907010299
 30
0.0
 10
-2.583841441687561
 20
-0.5171493894318367
 30
0.0
 10
-2.703506077617045
 20
-0.5171493894318368
 30
0.0
  0
LINE
  5
1E0A
330
1DE7
100
AcDbEntity
  8
0
100
AcDbLine
 10
-2.248475583031682
 20
0.0095274476845523
 30
0.0
 11
-2.248475583031683
 21
-0.3608993871035311
 31
0.0
  0
LINE
  5
1E0B
330
1DE7
100
AcDbEntity
  8
0
100
AcDbLine
 10
-2.714176809483366
 20
0.0095274476845532
 30
0.0
 11
-2.248475583031682
 21
0.0095274476845523
 31
0.0
  0
LINE
  5
1E0C
330
1DE7
100
AcDbEntity
  8
0
100
AcDbLine
 10
-2.714176809483367
 20
-0.1086127979783134
 30
0.0
 11
-2.714176809483366
 21
0.0095274476845532
 31
0.0
  0
SPLINE
  5
1E0D
330
1DE7
100
AcDbEntity
  8
0
100
AcDbSpline
210
0.0
220
0.0
230
1.0
 70
     8
 71
     3
 72
    12
 73
     8
 74
     0
 42
0.000000001
 43
0.0000000001
 40
0.0701625880555413
 40
0.0701625880555413
 40
0.0701625880555413
 40
0.0701625880555413
 40
0.0876266719572695
 40
0.0876266719572695
 40
0.1050907558589977
 40
0.1050907558589977
 40
0.121349748553623
 40
0.121349748553623
 40
0.121349748553623
 40
0.121349748553623
 10
-1.710400172474266
 20
0.9874999999999987
 30
0.0
 10
-1.681293365971386
 20
1.037914467709063
 30
0.0
 10
-1.638865373917005
 20
1.084176439154848
 30
0.0
 10
-1.537687359965964
 20
1.152007246533187
 30
0.0
 10
-1.478938253707481
 20
1.173575309033163
 30
0.0
 10
-1.368340087023359
 20
1.188649165648808
 30
0.0
 10
-1.31093246180066
 20
1.184828025995694
 30
0.0
 10
-1.257017608299372
 20
1.168994388991213
 30
0.0
  0
SPLINE
  5
1E0E
330
1DE7
100
AcDbEntity
  8
0
100
AcDbSpline
210
0.0
220
0.0
230
1.0
 70
     8
 71
     3
 72
    18
 73
    14
 74
     0
 42
0.000000001
 43
0.0000000001
 40
0.028525742117437
 40
0.028525742117437
 40
0.028525742117437
 40
0.028525742117437
 40
0.0417123967319211
 40
0.0417123967319211
 40
0.0621425582382483
 40
0.0621425582382483
 40
0.0825727197445755
 40
0.0825727197445755
 40
0.1030028812509027
 40
0.1030028812509027
 40
0.1234330427572299
 40
0.1234330427572299
 40
0.1366196973717141
 40
0.1366196973717141
 40
0.1366196973717141
 40
0.1366196973717141
 10
-1.257017608299372
 20
1.168994388991213
 30
0.0
 10
-1.212572578662662
 20
1.155941836304516
 30
0.0
 10
-1.167442820982028
 20
1.14761349154439
 30
0.0
 10
-1.056846689319522
 20
1.137519885577465
 30
0.0
 10
-0.9830801185813067
 20
1.141273850507828
 30
0.0
 10
-0.8403966967678588
 20
1.172524294941498
 30
0.0
 10
-0.7714767962263278
 20
1.200035931215611
 30
0.0
 10
-0.6535232037736725
 20
1.268136469570035
 30
0.0
 10
-0.5952374775898474
 20
1.314067036128241
 30
0.0
 10
-0.4968320879240118
 20
1.422009281900743
 30
0.0
 10
-0.4566977735602935
 20
1.484016023644918
 30
0.0
 10
-0.4101410269121879
 20
1.5848418862084
 30
0.0
 10
-0.3947887062056151
 20
1.628089575206528
 30
0.0
 10
-0.383870033598174
 20
1.673106376287219
 30
0.0
  0
SPLINE
  5
1E0F
330
1DE7
100
AcDbEntity
  8
0
100
AcDbSpline
210
0.0
220
0.0
230
1.0
 70
     8
 71
     3
 72
    12
 73
     8
 74
     0
 42
0.000000001
 43
0.0000000001
 40
0.0189754275574595
 40
0.0189754275574595
 40
0.0189754275574595
 40
0.0189754275574595
 40
0.0352344202520848
 40
0.0352344202520848
 40
0.052698504153813
 40
0.052698504153813
 40
0.0701625880555413
 40
0.0701625880555413
 40
0.0701625880555413
 40
0.0701625880555413
 10
-0.383870033598174
 20
1.673106376287219
 30
0.0
 10
-0.3706249387277127
 20
1.727714827562892
 30
0.0
 10
-0.345230330127368
 20
1.779341859203242
 30
0.0
 10
-0.2768769040231538
 20
1.867585752855856
 30
0.0
 10
-0.2288238608585237
 20
1.907679940075345
 30
0.0
 10
-0.1194916515341528
 20
1.961387266772234
 30
0.0
 10
-0.0582136130057617
 20
1.974999999999999
 30
0.0
 10
-0.0000000000000009
 20
1.974999999999999
 30
0.0
  0
SPLINE
  5
1E10
330
1DE7
100
AcDbEntity
  8
0
100
AcDbSpline
210
0.0
220
0.0
230
1.0
 70
     8
 71
     3
 72
    12
 73
     8
 74
     0
 42
0.000000001
 43
0.0000000001
 40
0.0701625880555413
 40
0.0701625880555413
 40
0.0701625880555413
 40
0.0701625880555413
 40
0.0876266719572696
 40
0.0876266719572696
 40
0.1050907558589978
 40
0.1050907558589978
 40
0.1213497485536232
 40
0.1213497485536232
 40
0.1213497485536232
 40
0.1213497485536232
 10
-1.710400172474266
 20
-0.9875000000000014
 30
0.0
 10
-1.739506978977146
 20
-0.9370855322909363
 30
0.0
 10
-1.758357025451156
 20
-0.8772108276173852
 30
0.0
 10
-1.766511220824486
 20
-0.7556726935421578
 30
0.0
 10
-1.755815157730634
 20
-0.6940104438226933
 30
0.0
 10
-1.713570417150726
 20
-0.5906926935544341
 30
0.0
 10
-1.681557400528371
 20
-0.5428868015671979
 30
0.0
 10
-1.640887641897545
 20
-0.5041119872960073
 30
0.0
  0
SPLINE
  5
1E11
330
1DE7
100
AcDbEntity
  8
0
100
AcDbSpline
210
0.0
220
0.0
230
1.0
 70
     8
 71
     3
 72
    18
 73
    14
 74
     0
 42
0.000000001
 43
0.0000000001
 40
0.028525742117437
 40
0.028525742117437
 40
0.028525742117437
 40
0.028525742117437
 40
0.0417123967319211
 40
0.0417123967319211
 40
0.0621425582382483
 40
0.0621425582382483
 40
0.0825727197445755
 40
0.0825727197445755
 40
0.1030028812509027
 40
0.1030028812509027
 40
0.1234330427572299
 40
0.1234330427572299
 40
0.136619697371714
 40
0.136619697371714
 40
0.136619697371714
 40
0.136619697371714
 10
-1.640887641897545
 20
-0.5041119872960073
 30
0.0
 10
-1.607361284868276
 20
-0.4721477389020121
 30
0.0
 10
-1.577583847894215
 20
-0.43722839466401
 30
0.0
 10
-1.513544462879814
 20
-0.3464961380674539
 30
0.0
 10
-1.479912206505317
 20
-0.2807354313929158
 30
0.0
 10
-1.435634174357704
 20
-0.1415427411867444
 30
0.0
 10
-1.424999999999999
 20
-0.0681005383544251
 30
0.0
 10
-1.424999999999999
 20
0.0681005383544231
 30
0.0
 10
-1.435634174357705
 20
0.1415427411867427
 30
0.0
 10
-1.479912206505317
 20
0.280735431392914
 30
0.0
 10
-1.513544462879814
 20
0.3464961380674517
 30
0.0
 10
-1.577583847894215
 20
0.4372283946640079
 30
0.0
 10
-1.607361284868276
 20
0.4721477389020097
 30
0.0
 10
-1.640887641897545
 20
0.504111987296005
 30
0.0
  0
SPLINE
  5
1E12
330
1DE7
100
AcDbEntity
  8
0
100
AcDbSpline
210
0.0
220
0.0
230
1.0
 70
     8
 71
     3
 72
    12
 73
     8
 74
     0
 42
0.000000001
 43
0.0000000001
 40
0.0189754275574595
 40
0.0189754275574595
 40
0.0189754275574595
 40
0.0189754275574595
 40
0.0352344202520848
 40
0.0352344202520848
 40
0.052698504153813
 40
0.052698504153813
 40
0.0701625880555413
 40
0.0701625880555413
 40
0.0701625880555413
 40
0.0701625880555413
 10
-1.640887641897545
 20
0.504111987296005
 30
0.0
 10
-1.681557400528371
 20
0.5428868015671954
 30
0.0
 10
-1.713570417150725
 20
0.5906926935544323
 30
0.0
 10
-1.755815157730634
 20
0.6940104438226907
 30
0.0
 10
-1.766511220824486
 20
0.755672693542155
 30
0.0
 10
-1.758357025451157
 20
0.8772108276173822
 30
0.0
 10
-1.739506978977147
 20
0.9370855322909337
 30
0.0
 10
-1.710400172474266
 20
0.9874999999999987
 30
0.0
  0
SPLINE
  5
1E13
330
1DE7
100
AcDbEntity
  8
0
100
AcDbSpline
210
0.0
220
0.0
230
1.0
 70
     8
 71
     3
 72
    12
 73
     8
 74
     0
 42
0.000000001
 43
0.0000000001
 40
0.0701625880555411
 40
0.0701625880555411
 40
0.0701625880555411
 40
0.0701625880555411
 40
0.0876266719572693
 40
0.0876266719572693
 40
0.1050907558589975
 40
0.1050907558589975
 40
0.1213497485536227
 40
0.1213497485536227
 40
0.1213497485536227
 40
0.1213497485536227
 10
0.0000000000000008
 20
-1.974999999999998
 30
0.0
 10
-0.0582136130057599
 20
-1.974999999999998
 30
0.0
 10
-0.1194916515341506
 20
-1.961387266772233
 30
0.0
 10
-0.2288238608585213
 20
-1.907679940075344
 30
0.0
 10
-0.2768769040231517
 20
-1.867585752855855
 30
0.0
 10
-0.3452303301273658
 20
-1.779341859203241
 30
0.0
 10
-0.3706249387277116
 20
-1.727714827562891
 30
0.0
 10
-0.3838700335981731
 20
-1.67310637628722
 30
0.0
  0
SPLINE
  5
1E14
330
1DE7
100
AcDbEntity
  8
0
100
AcDbSpline
210
0.0
220
0.0
230
1.0
 70
     8
 71
     3
 72
    18
 73
    14
 74
     0
 42
0.000000001
 43
0.0000000001
 40
0.028525742117437
 40
0.028525742117437
 40
0.028525742117437
 40
0.028525742117437
 40
0.041712396731921
 40
0.041712396731921
 40
0.0621425582382483
 40
0.0621425582382483
 40
0.0825727197445755
 40
0.0825727197445755
 40
0.1030028812509027
 40
0.1030028812509027
 40
0.1234330427572299
 40
0.1234330427572299
 40
0.136619697371714
 40
0.136619697371714
 40
0.136619697371714
 40
0.136619697371714
 10
-0.3838700335981731
 20
-1.67310637628722
 30
0.0
 10
-0.3947887062056141
 20
-1.628089575206528
 30
0.0
 10
-0.4101410269121868
 20
-1.584841886208401
 30
0.0
 10
-0.4566977735602923
 20
-1.484016023644919
 30
0.0
 10
-0.4968320879240105
 20
-1.422009281900744
 30
0.0
 10
-0.5952374775898463
 20
-1.314067036128242
 30
0.0
 10
-0.6535232037736716
 20
-1.268136469570037
 30
0.0
 10
-0.771476796226327
 20
-1.200035931215613
 30
0.0
 10
-0.8403966967678575
 20
-1.172524294941499
 30
0.0
 10
-0.983080118581306
 20
-1.14127385050783
 30
0.0
 10
-1.056846689319521
 20
-1.137519885577466
 30
0.0
 10
-1.167442820982027
 20
-1.147613491544392
 30
0.0
 10
-1.212572578662661
 20
-1.155941836304518
 30
0.0
 10
-1.257017608299372
 20
-1.168994388991214
 30
0.0
  0
SPLINE
  5
1E15
330
1DE7
100
AcDbEntity
  8
0
100
AcDbSpline
210
0.0
220
0.0
230
1.0
 70
     8
 71
     3
 72
    12
 73
     8
 74
     0
 42
0.000000001
 43
0.0000000001
 40
0.0189754275574596
 40
0.0189754275574596
 40
0.0189754275574596
 40
0.0189754275574596
 40
0.0352344202520849
 40
0.0352344202520849
 40
0.0526985041538131
 40
0.0526985041538131
 40
0.0701625880555413
 40
0.0701625880555413
 40
0.0701625880555413
 40
0.0701625880555413
 10
-1.257017608299372
 20
-1.168994388991214
 30
0.0
 10
-1.310932461800659
 20
-1.184828025995696
 30
0.0
 10
-1.368340087023358
 20
-1.188649165648811
 30
0.0
 10
-1.478938253707481
 20
-1.173575309033165
 30
0.0
 10
-1.537687359965963
 20
-1.15200724653319
 30
0.0
 10
-1.638865373917004
 20
-1.084176439154851
 30
0.0
 10
-1.681293365971385
 20
-1.037914467709066
 30
0.0
 10
-1.710400172474266
 20
-0.9875000000000014
 30
0.0
  0
SPLINE
  5
1E16
330
1DE7
100
AcDbEntity
  8
0
100
AcDbSpline
210
0.0
220
0.0
230
1.0
 70
     8
 71
     3
 72
    12
 73
     8
 74
     0
 42
0.000000001
 43
0.0000000001
 40
0.0189754275574595
 40
0.0189754275574595
 40
0.0189754275574595
 40
0.0189754275574595
 40
0.0352344202520847
 40
0.0352344202520847
 40
0.0526985041538129
 40
0.0526985041538129
 40
0.0701625880555411
 40
0.0701625880555411
 40
0.0701625880555411
 40
0.0701625880555411
 10
0.3838700335981744
 20
-1.673106376287219
 30
0.0
 10
0.3706249387277131
 20
-1.727714827562891
 30
0.0
 10
0.3452303301273673
 20
-1.779341859203242
 30
0.0
 10
0.2768769040231533
 20
-1.867585752855855
 30
0.0
 10
0.2288238608585231
 20
-1.907679940075344
 30
0.0
 10
0.1194916515341524
 20
-1.961387266772233
 30
0.0
 10
0.0582136130057615
 20
-1.974999999999998
 30
0.0
 10
0.0000000000000008
 20
-1.974999999999998
 30
0.0
  0
SPLINE
  5
1E17
330
1DE7
100
AcDbEntity
  8
0
100
AcDbSpline
210
0.0
220
0.0
230
1.0
 70
     8
 71
     3
 72
    12
 73
     8
 74
     0
 42
0.000000001
 43
0.0000000001
 40
0.0701625880555416
 40
0.0701625880555416
 40
0.0701625880555416
 40
0.0701625880555416
 40
0.0876266719572699
 40
0.0876266719572699
 40
0.1050907558589983
 40
0.1050907558589983
 40
0.1213497485536236
 40
0.1213497485536236
 40
0.1213497485536236
 40
0.1213497485536236
 10
1.710400172474269
 20
-0.9875000000000007
 30
0.0
 10
1.681293365971388
 20
-1.037914467709066
 30
0.0
 10
1.638865373917007
 20
-1.084176439154851
 30
0.0
 10
1.537687359965965
 20
-1.15200724653319
 30
0.0
 10
1.478938253707482
 20
-1.173575309033166
 30
0.0
 10
1.368340087023359
 20
-1.188649165648811
 30
0.0
 10
1.310932461800661
 20
-1.184828025995695
 30
0.0
 10
1.257017608299373
 20
-1.168994388991213
 30
0.0
  0
SPLINE
  5
1E18
330
1DE7
100
AcDbEntity
  8
0
100
AcDbSpline
210
0.0
220
0.0
230
1.0
 70
     8
 71
     3
 72
    18
 73
    14
 74
     0
 42
0.000000001
 43
0.0000000001
 40
0.0285257421174369
 40
0.0285257421174369
 40
0.0285257421174369
 40
0.0285257421174369
 40
0.0417123967319211
 40
0.0417123967319211
 40
0.0621425582382483
 40
0.0621425582382483
 40
0.0825727197445755
 40
0.0825727197445755
 40
0.1030028812509027
 40
0.1030028812509027
 40
0.1234330427572299
 40
0.1234330427572299
 40
0.1366196973717139
 40
0.1366196973717139
 40
0.1366196973717139
 40
0.1366196973717139
 10
1.257017608299373
 20
-1.168994388991213
 30
0.0
 10
1.212572578662662
 20
-1.155941836304517
 30
0.0
 10
1.167442820982028
 20
-1.147613491544391
 30
0.0
 10
1.056846689319522
 20
-1.137519885577466
 30
0.0
 10
0.983080118581307
 20
-1.141273850507829
 30
0.0
 10
0.8403966967678588
 20
-1.172524294941498
 30
0.0
 10
0.7714767962263281
 20
-1.200035931215612
 30
0.0
 10
0.6535232037736727
 20
-1.268136469570036
 30
0.0
 10
0.5952374775898474
 20
-1.314067036128242
 30
0.0
 10
0.4968320879240117
 20
-1.422009281900744
 30
0.0
 10
0.4566977735602939
 20
-1.484016023644919
 30
0.0
 10
0.4101410269121882
 20
-1.5848418862084
 30
0.0
 10
0.3947887062056155
 20
-1.628089575206528
 30
0.0
 10
0.3838700335981744
 20
-1.673106376287219
 30
0.0
  0
SPLINE
  5
1E19
330
1DE7
100
AcDbEntity
  8
0
100
AcDbSpline
210
0.0
220
0.0
230
1.0
 70
     8
 71
     3
 72
    12
 73
     8
 74
     0
 42
0.000000001
 43
0.0000000001
 40
0.0189754275574596
 40
0.0189754275574596
 40
0.0189754275574596
 40
0.0189754275574596
 40
0.035234420252085
 40
0.035234420252085
 40
0.0526985041538133
 40
0.0526985041538133
 40
0.0701625880555416
 40
0.0701625880555416
 40
0.0701625880555416
 40
0.0701625880555416
 10
1.640887641897545
 20
-0.5041119872960067
 30
0.0
 10
1.681557400528371
 20
-0.5428868015671974
 30
0.0
 10
1.713570417150727
 20
-0.5906926935544323
 30
0.0
 10
1.755815157730637
 20
-0.6940104438226915
 30
0.0
 10
1.766511220824488
 20
-0.755672693542156
 30
0.0
 10
1.758357025451159
 20
-0.877210827617384
 30
0.0
 10
1.739506978977149
 20
-0.9370855322909354
 30
0.0
 10
1.710400172474269
 20
-0.9875000000000007
 30
0.0
  0
SPLINE
  5
1E1A
330
1DE7
100
AcDbEntity
  8
0
100
AcDbSpline
210
0.0
220
0.0
230
1.0
 70
     8
 71
     3
 72
    12
 73
     8
 74
     0
 42
0.000000001
 43
0.0000000001
 40
0.0701625880555412
 40
0.0701625880555412
 40
0.0701625880555412
 40
0.0701625880555412
 40
0.0876266719572695
 40
0.0876266719572695
 40
0.1050907558589977
 40
0.1050907558589977
 40
0.121349748553623
 40
0.121349748553623
 40
0.121349748553623
 40
0.121349748553623
 10
1.710400172474265
 20
0.9874999999999996
 30
0.0
 10
1.739506978977145
 20
0.9370855322909347
 30
0.0
 10
1.758357025451155
 20
0.8772108276173838
 30
0.0
 10
1.766511220824484
 20
0.7556726935421566
 30
0.0
 10
1.755815157730633
 20
0.694010443822692
 30
0.0
 10
1.713570417150725
 20
0.5906926935544333
 30
0.0
 10
1.681557400528371
 20
0.5428868015671956
 30
0.0
 10
1.640887641897545
 20
0.5041119872960053
 30
0.0
  0
SPLINE
  5
1E1B
330
1DE7
100
AcDbEntity
  8
0
100
AcDbSpline
210
0.0
220
0.0
230
1.0
 70
     8
 71
     3
 72
    18
 73
    14
 74
     0
 42
0.000000001
 43
0.0000000001
 40
0.028525742117437
 40
0.028525742117437
 40
0.028525742117437
 40
0.028525742117437
 40
0.0417123967319209
 40
0.0417123967319209
 40
0.062142558238248
 40
0.062142558238248
 40
0.0825727197445751
 40
0.0825727197445751
 40
0.1030028812509022
 40
0.1030028812509022
 40
0.1234330427572293
 40
0.1234330427572293
 40
0.1366196973717132
 40
0.1366196973717132
 40
0.1366196973717132
 40
0.1366196973717132
 10
1.640887641897545
 20
0.5041119872960053
 30
0.0
 10
1.607361284868276
 20
0.4721477389020105
 30
0.0
 10
1.577583847894219
 20
0.4372283946640058
 30
0.0
 10
1.513544462879819
 20
0.3464961380674505
 30
0.0
 10
1.479912206505321
 20
0.2807354313929129
 30
0.0
 10
1.435634174357709
 20
0.1415427411867423
 30
0.0
 10
1.425000000000004
 20
0.0681005383544231
 30
0.0
 10
1.425000000000004
 20
-0.0681005383544244
 30
0.0
 10
1.435634174357709
 20
-0.1415427411867434
 30
0.0
 10
1.479912206505321
 20
-0.2807354313929142
 30
0.0
 10
1.513544462879819
 20
-0.3464961380674516
 30
0.0
 10
1.577583847894219
 20
-0.4372283946640069
 30
0.0
 10
1.607361284868276
 20
-0.4721477389020118
 30
0.0
 10
1.640887641897545
 20
-0.5041119872960067
 30
0.0
  0
SPLINE
  5
1E1C
330
1DE7
100
AcDbEntity
  8
0
100
AcDbSpline
210
0.0
220
0.0
230
1.0
 70
     8
 71
     3
 72
    12
 73
     8
 74
     0
 42
0.000000001
 43
0.0000000001
 40
0.0189754275574595
 40
0.0189754275574595
 40
0.0189754275574595
 40
0.0189754275574595
 40
0.0352344202520848
 40
0.0352344202520848
 40
0.052698504153813
 40
0.052698504153813
 40
0.0701625880555412
 40
0.0701625880555412
 40
0.0701625880555412
 40
0.0701625880555412
 10
1.257017608299371
 20
1.168994388991214
 30
0.0
 10
1.310932461800658
 20
1.184828025995695
 30
0.0
 10
1.368340087023357
 20
1.188649165648809
 30
0.0
 10
1.47893825370748
 20
1.173575309033163
 30
0.0
 10
1.537687359965961
 20
1.152007246533188
 30
0.0
 10
1.638865373917003
 20
1.08417643915485
 30
0.0
 10
1.681293365971384
 20
1.037914467709064
 30
0.0
 10
1.710400172474265
 20
0.9874999999999996
 30
0.0
  0
SPLINE
  5
1E1D
330
1DE7
100
AcDbEntity
  8
0
100
AcDbSpline
210
0.0
220
0.0
230
1.0
 70
     8
 71
     3
 72
    12
 73
     8
 74
     0
 42
0.000000001
 43
0.0000000001
 40
0.0701625880555413
 40
0.0701625880555413
 40
0.0701625880555413
 40
0.0701625880555413
 40
0.0876266719572695
 40
0.0876266719572695
 40
0.1050907558589977
 40
0.1050907558589977
 40
0.121349748553623
 40
0.121349748553623
 40
0.121349748553623
 40
0.121349748553623
 10
-0.0000000000000009
 20
1.974999999999999
 30
0.0
 10
0.0582136130057599
 20
1.974999999999999
 30
0.0
 10
0.119491651534151
 20
1.961387266772234
 30
0.0
 10
0.2288238608585219
 20
1.907679940075345
 30
0.0
 10
0.2768769040231522
 20
1.867585752855856
 30
0.0
 10
0.3452303301273663
 20
1.779341859203243
 30
0.0
 10
0.3706249387277112
 20
1.727714827562891
 30
0.0
 10
0.3838700335981727
 20
1.67310637628722
 30
0.0
  0
SPLINE
  5
1E1E
330
1DE7
100
AcDbEntity
  8
0
100
AcDbSpline
210
0.0
220
0.0
230
1.0
 70
     8
 71
     3
 72
    18
 73
    14
 74
     0
 42
0.000000001
 43
0.0000000001
 40
0.028525742117437
 40
0.028525742117437
 40
0.028525742117437
 40
0.028525742117437
 40
0.0417123967319211
 40
0.0417123967319211
 40
0.0621425582382483
 40
0.0621425582382483
 40
0.0825727197445755
 40
0.0825727197445755
 40
0.1030028812509027
 40
0.1030028812509027
 40
0.1234330427572299
 40
0.1234330427572299
 40
0.1366196973717139
 40
0.1366196973717139
 40
0.1366196973717139
 40
0.1366196973717139
 10
0.3838700335981727
 20
1.67310637628722
 30
0.0
 10
0.3947887062056138
 20
1.628089575206528
 30
0.0
 10
0.4101410269121869
 20
1.5848418862084
 30
0.0
 10
0.4566977735602924
 20
1.484016023644919
 30
0.0
 10
0.4968320879240105
 20
1.422009281900744
 30
0.0
 10
0.5952374775898464
 20
1.314067036128241
 30
0.0
 10
0.6535232037736716
 20
1.268136469570036
 30
0.0
 10
0.771476796226327
 20
1.200035931215612
 30
0.0
 10
0.8403966967678579
 20
1.172524294941498
 30
0.0
 10
0.9830801185813061
 20
1.141273850507829
 30
0.0
 10
1.056846689319521
 20
1.137519885577466
 30
0.0
 10
1.167442820982027
 20
1.147613491544391
 30
0.0
 10
1.21257257866266
 20
1.155941836304517
 30
0.0
 10
1.257017608299371
 20
1.168994388991214
 30
0.0
  0
CIRCLE
  5
1E1F
330
1DE7
100
AcDbEntity
  8
0
100
AcDbCircle
 10
0.0
 20
-0.0000000000000003
 30
0.0
 40
1.974999999999999
  0
CIRCLE
  5
1E20
330
1DE7
100
AcDbEntity
  8
0
100
AcDbCircle
 10
0.0
 20
-0.0000000000000003
 30
0.0
 40
3.5
  0
ENDBLK
  5
1DE9
330
1DE7
100
AcDbEntity
  8
0
100
AcDbBlockEnd
  0
BLOCK
  5
1E7D
330
1E7C
100
AcDbEntity
  8
0
100
AcDbBlockBegin
  2
DSIX442X35T-20-ISO
 70
     0
 10
0.0
 20
0.0
 30
0.0
  3
DSIX442X35T-20-ISO
  1

  0
LINE
  5
1E7F
330
1E7C
100
AcDbEntity
  8
0
100
AcDbLine
 10
1.72313632357727
 20
13.46826455858492
 30
0.0
 11
2.132455266261247
 21
13.23194415684191
 31
0.0
  0
LINE
  5
1E80
330
1E7C
100
AcDbEntity
  8
0
100
AcDbLine
 10
1.72313632357727
 20
13.46826455858492
 30
0.0
 11
1.72313632357727
 21
13.3702849688736
 31
0.0
  0
LINE
  5
1E81
330
1E7C
100
AcDbEntity
  8
0
100
AcDbLine
 10
1.998612660534675
 20
13.20552315550937
 30
0.0
 11
2.088784763476209
 21
13.15346226760268
 31
0.0
  0
LINE
  5
1E82
330
1E7C
100
AcDbEntity
  8
0
100
AcDbLine
 10
2.132455266261247
 20
13.23194415684191
 30
0.0
 11
2.132455266261247
 21
13.13396456713059
 31
0.0
  0
LINE
  5
1E83
330
1E7C
100
AcDbEntity
  8
0
100
AcDbLine
 10
1.638283509834884
 20
13.41927476372926
 30
0.0
 11
1.72313632357727
 21
13.46826455858492
 31
0.0
  0
LINE
  5
1E84
330
1E7C
100
AcDbEntity
  8
0
100
AcDbLine
 10
1.998612660534675
 20
13.21123863157586
 30
0.0
 11
1.638283509834884
 21
13.41927476372926
 31
0.0
  0
LINE
  5
1E85
330
1E7C
100
AcDbEntity
  8
0
100
AcDbLine
 10
1.998612660534675
 20
13.21123863157586
 30
0.0
 11
1.998612660534675
 21
13.13951259331464
 31
0.0
  0
LINE
  5
1E86
330
1E7C
100
AcDbEntity
  8
0
100
AcDbLine
 10
1.79249504771575
 20
13.17935212266615
 30
0.0
 11
1.998612660534675
 21
13.21123863157586
 31
0.0
  0
LINE
  5
1E87
330
1E7C
100
AcDbEntity
  8
0
100
AcDbLine
 10
1.79249504771575
 20
13.17935212266615
 30
0.0
 11
1.79249504771575
 21
13.08137253295482
 31
0.0
  0
LINE
  5
1E88
330
1E7C
100
AcDbEntity
  8
0
100
AcDbLine
 10
1.800302533049801
 20
13.07686487919551
 30
0.0
 11
1.890474635991333
 21
13.09081455348356
 31
0.0
  0
LINE
  5
1E89
330
1E7C
100
AcDbEntity
  8
0
100
AcDbLine
 10
1.507610176671608
 20
13.34383047965153
 30
0.0
 11
1.79249504771575
 21
13.17935212266615
 31
0.0
  0
LINE
  5
1E8A
330
1E7C
100
AcDbEntity
  8
0
100
AcDbLine
 10
1.507610176671608
 20
13.34383047965153
 30
0.0
 11
1.507610176671608
 21
13.24585088994021
 31
0.0
  0
LINE
  5
1E8B
330
1E7C
100
AcDbEntity
  8
0
100
AcDbLine
 10
1.658652441989177
 20
13.1529311213336
 30
0.0
 11
1.74882454493071
 21
13.10087023342691
 31
0.0
  0
LINE
  5
1E8C
330
1E7C
100
AcDbEntity
  8
0
100
AcDbLine
 10
1.422757362929223
 20
13.29484068479587
 30
0.0
 11
1.507610176671608
 21
13.34383047965153
 31
0.0
  0
LINE
  5
1E8D
330
1E7C
100
AcDbEntity
  8
0
100
AcDbLine
 10
1.658652441989178
 20
13.1586465974001
 30
0.0
 11
1.422757362929223
 21
13.29484068479587
 31
0.0
  0
LINE
  5
1E8E
330
1E7C
100
AcDbEntity
  8
0
100
AcDbLine
 10
1.658652441989178
 20
13.1586465974001
 30
0.0
 11
1.658652441989178
 21
13.08692055913887
 31
0.0
  0
LINE
  5
1E8F
330
1E7C
100
AcDbEntity
  8
0
100
AcDbLine
 10
1.370642740167714
 20
13.11409133694653
 30
0.0
 11
1.658652441989178
 21
13.1586465974001
 31
0.0
  0
LINE
  5
1E90
330
1E7C
100
AcDbEntity
  8
0
100
AcDbLine
 10
1.401701028521897
 20
13.04717003310262
 30
0.0
 11
1.370642740167714
 21
13.11409133694653
 31
0.0
  0
LINE
  5
1E91
330
1E7C
100
AcDbEntity
  8
0
100
AcDbLine
 10
1.756632030264761
 20
13.1020780557341
 30
0.0
 11
1.401701028521897
 21
13.04717003310262
 31
0.0
  0
LINE
  5
1E92
330
1E7C
100
AcDbEntity
  8
0
100
AcDbLine
 10
2.165950972948738
 20
12.86575765399109
 30
0.0
 11
1.756632030264761
 21
13.1020780557341
 31
0.0
  0
LINE
  5
1E93
330
1E7C
100
AcDbEntity
  8
0
100
AcDbLine
 10
2.250803786691125
 20
12.91474744884676
 30
0.0
 11
2.165950972948738
 21
12.86575765399109
 31
0.0
  0
LINE
  5
1E94
330
1E7C
100
AcDbEntity
  8
0
100
AcDbLine
 10
1.890474635991333
 20
13.12278358100015
 30
0.0
 11
2.250803786691125
 21
12.91474744884676
 31
0.0
  0
LINE
  5
1E95
330
1E7C
100
AcDbEntity
  8
0
100
AcDbLine
 10
1.890474635991333
 20
13.12278358100015
 30
0.0
 11
1.890474635991333
 21
13.02480399128882
 31
0.0
  0
LINE
  5
1E96
330
1E7C
100
AcDbEntity
  8
0
100
AcDbLine
 10
2.09659224881026
 20
13.15467008990987
 30
0.0
 11
1.890474635991333
 21
13.12278358100015
 31
0.0
  0
LINE
  5
1E97
330
1E7C
100
AcDbEntity
  8
0
100
AcDbLine
 10
2.3814771198544
 20
12.99019173292448
 30
0.0
 11
2.09659224881026
 21
13.15467008990987
 31
0.0
  0
LINE
  5
1E98
330
1E7C
100
AcDbEntity
  8
0
100
AcDbLine
 10
2.466329933596786
 20
13.03918152778014
 30
0.0
 11
2.3814771198544
 21
12.99019173292448
 31
0.0
  0
LINE
  5
1E99
330
1E7C
100
AcDbEntity
  8
0
100
AcDbLine
 10
2.230434854536833
 20
13.17537561517591
 30
0.0
 11
2.466329933596786
 21
13.03918152778014
 31
0.0
  0
LINE
  5
1E9A
330
1E7C
100
AcDbEntity
  8
0
100
AcDbLine
 10
2.230434854536833
 20
13.17537561517591
 30
0.0
 11
2.230434854536833
 21
13.07739602546459
 31
0.0
  0
LINE
  5
1E9B
330
1E7C
100
AcDbEntity
  8
0
100
AcDbLine
 10
2.518444556358298
 20
13.21993087562949
 30
0.0
 11
2.230434854536833
 21
13.17537561517591
 31
0.0
  0
LINE
  5
1E9C
330
1E7C
100
AcDbEntity
  8
0
100
AcDbLine
 10
2.487386268004116
 20
13.2868521794734
 30
0.0
 11
2.518444556358298
 21
13.21993087562949
 31
0.0
  0
LINE
  5
1E9D
330
1E7C
100
AcDbEntity
  8
0
100
AcDbLine
 10
2.487386268004116
 20
13.2868521794734
 30
0.0
 11
2.487386268004116
 21
13.21512614121217
 31
0.0
  0
LINE
  5
1E9E
330
1E7C
100
AcDbEntity
  8
0
100
AcDbLine
 10
2.132455266261247
 20
13.23194415684191
 30
0.0
 11
2.487386268004116
 21
13.2868521794734
 31
0.0
  0
LINE
  5
1E9F
330
1E7C
100
AcDbEntity
  8
0
100
AcDbLine
 10
2.140262751595297
 20
13.12945691337128
 30
0.0
 11
2.230434854536833
 21
13.14340658765932
 31
0.0
  0
LINE
  5
1EA0
330
1E7C
100
AcDbEntity
  8
0
100
AcDbLine
 10
-1.767497454022647
 20
15.2214770577413
 30
0.0
 11
-1.996013673299066
 21
15.35341095845474
 31
0.0
  0
LINE
  5
1EA1
330
1E7C
100
AcDbEntity
  8
0
100
AcDbLine
 10
-1.767497454022647
 20
15.2214770577413
 30
0.0
 11
-1.767497454022647
 21
15.11778199196348
 31
0.0
  0
LINE
  5
1EA2
330
1E7C
100
AcDbEntity
  8
0
100
AcDbLine
 10
-1.898463117428709
 20
15.14586399671921
 30
0.0
 11
-1.767497454022647
 21
15.2214770577413
 31
0.0
  0
LINE
  5
1EA3
330
1E7C
100
AcDbEntity
  8
0
100
AcDbLine
 10
-1.898463117428709
 20
15.14586399671921
 30
0.0
 11
-1.898463117428709
 21
15.066117828033
 31
0.0
  0
LINE
  5
1EA4
330
1E7C
100
AcDbEntity
  8
0
100
AcDbLine
 10
-1.863873962579096
 20
15.06213898880486
 30
0.0
 11
-1.767497454022647
 21
15.11778199196348
 31
0.0
  0
SPLINE
  5
1EA5
330
1E7C
100
AcDbEntity
  8
0
100
AcDbSpline
210
0.0
220
0.0
230
1.0
 70
     8
 71
     2
 72
     7
 73
     4
 74
     0
 42
0.000000001
 43
0.0000000001
 40
0.0
 40
0.0
 40
0.0
 40
1.0
 40
2.0
 40
2.0
 40
2.0
 10
-2.198660131902685
 20
15.23454598186857
 30
0.0
 10
-2.131829916831278
 20
15.1959615392071
 30
0.0
 10
-1.957747985637213
 20
15.14959797504129
 30
0.0
 10
-1.898463117428709
 20
15.14586399671921
 30
0.0
  0
LINE
  5
1EA6
330
1E7C
100
AcDbEntity
  8
0
100
AcDbLine
 10
-2.198660131902685
 20
15.23454598186857
 30
0.0
 11
-2.198660131902685
 21
15.14299095180414
 31
0.0
  0
SPLINE
  5
1EA7
330
1E7C
100
AcDbEntity
  8
0
100
AcDbSpline
210
0.0
220
0.0
230
1.0
 70
     8
 71
     2
 72
     8
 73
     5
 74
     0
 42
0.000000001
 43
0.0000000001
 40
0.0
 40
0.0
 40
0.0
 40
1.0
 40
2.0
 40
3.0
 40
3.0
 40
3.0
 10
-2.200276991944733
 20
15.5628249093513
 30
0.0
 10
-2.294593827730991
 20
15.50837105882099
 30
0.0
 10
-2.350644975855396
 20
15.3932400605569
 30
0.0
 10
-2.27573046057374
 20
15.27904255687334
 30
0.0
 10
-2.198660131902685
 20
15.23454598186857
 30
0.0
  0
SPLINE
  5
1EA8
330
1E7C
100
AcDbEntity
  8
0
100
AcDbSpline
210
0.0
220
0.0
230
1.0
 70
     8
 71
     2
 72
     7
 73
     4
 74
     0
 42
0.000000001
 43
0.0000000001
 40
1.427983539094652
 40
1.427983539094652
 40
1.427983539094652
 40
2.0
 40
2.574160160167044
 40
2.574160160167044
 40
2.574160160167044
 10
-2.334613886165494
 20
15.29792181587359
 30
0.0
 10
-2.334613886165494
 20
15.26510766888795
 30
0.0
 10
-2.291681253168092
 20
15.19966241443449
 30
0.0
 10
-2.257115947502122
 20
15.17103301815551
 30
0.0
  0
SPLINE
  5
1EA9
330
1E7C
100
AcDbEntity
  8
0
100
AcDbSpline
210
0.0
220
0.0
230
1.0
 70
     8
 71
     2
 72
     6
 73
     3
 74
     0
 42
0.000000001
 43
0.0000000001
 40
0.0
 40
0.0
 40
0.0
 40
1.0
 40
1.0
 40
1.0
 10
-2.028350874140067
 20
15.6278583651275
 30
0.0
 10
-2.123745616621026
 20
15.60701031949589
 30
0.0
 10
-2.200276991944733
 20
15.5628249093513
 30
0.0
  0
SPLINE
  5
1EAA
330
1E7C
100
AcDbEntity
  8
0
100
AcDbSpline
210
0.0
220
0.0
230
1.0
 70
     8
 71
     2
 72
     8
 73
     5
 74
     0
 42
0.000000001
 43
0.0000000001
 40
0.0
 40
0.0
 40
0.0
 40
1.0
 40
2.0
 40
3.0
 40
3.0
 40
3.0
 10
-1.633837023879834
 20
15.56251374449113
 30
0.0
 10
-1.70443991238269
 20
15.60327634117381
 30
0.0
 10
-1.845645689388402
 20
15.63999379467425
 30
0.0
 10
-1.972838679363013
 20
15.63937146495391
 30
0.0
 10
-2.028350874140067
 20
15.6278583651275
 30
0.0
  0
SPLINE
  5
1EAB
330
1E7C
100
AcDbEntity
  8
0
100
AcDbSpline
210
0.0
220
0.0
230
1.0
 70
     8
 71
     2
 72
     8
 73
     5
 74
     0
 42
0.000000001
 43
0.0000000001
 40
0.0
 40
0.0
 40
0.0
 40
1.0
 40
2.0
 40
3.0
 40
3.0
 40
3.0
 10
-1.562156228682279
 20
15.34438717750971
 30
0.0
 10
-1.525507401062476
 20
15.38546093905258
 30
0.0
 10
-1.515806240810175
 20
15.45142788940929
 30
0.0
 10
-1.57509110901868
 20
15.52859677473225
 30
0.0
 10
-1.633837023879834
 20
15.56251374449113
 30
0.0
  0
LINE
  5
1EAC
330
1E7C
100
AcDbEntity
  8
0
100
AcDbLine
 10
-1.446281259002019
 20
15.30424691054737
 30
0.0
 11
-1.562156228682279
 21
15.34438717750971
 31
0.0
  0
SPLINE
  5
1EAD
330
1E7C
100
AcDbEntity
  8
0
100
AcDbSpline
210
0.0
220
0.0
230
1.0
 70
     8
 71
     2
 72
     8
 73
     5
 74
     0
 42
0.000000001
 43
0.0000000001
 40
0.0
 40
0.0
 40
0.0
 40
1.0
 40
2.0
 40
3.0
 40
3.0
 40
3.0
 10
-1.554071928472028
 20
15.6091884735171
 30
0.0
 10
-1.46945625293807
 20
15.56033559046991
 30
0.0
 10
-1.383223717362063
 20
15.45329487857033
 30
0.0
 10
-1.394541737656415
 20
15.35714493677681
 30
0.0
 10
-1.446281259002019
 20
15.30424691054737
 30
0.0
  0
LINE
  5
1EAE
330
1E7C
100
AcDbEntity
  8
0
100
AcDbLine
 10
-1.554071928472028
 20
15.6091884735171
 30
0.0
 11
-1.554071928472028
 21
15.50549340773928
 31
0.0
  0
SPLINE
  5
1EAF
330
1E7C
100
AcDbEntity
  8
0
100
AcDbSpline
210
0.0
220
0.0
230
1.0
 70
     8
 71
     2
 72
     7
 73
     4
 74
     0
 42
0.000000001
 43
0.0000000001
 40
0.0
 40
0.0
 40
0.0
 40
1.0
 40
1.364899433965877
 40
1.364899433965877
 40
1.364899433965877
 10
-1.554071928472028
 20
15.50549340773928
 30
0.0
 10
-1.46945625293807
 20
15.45664052469209
 30
0.0
 10
-1.410606883439503
 20
15.38359062115057
 30
0.0
 10
-1.40136828787567
 20
15.36478613527443
 30
0.0
  0
SPLINE
  5
1EB0
330
1E7C
100
AcDbEntity
  8
0
100
AcDbSpline
210
0.0
220
0.0
230
1.0
 70
     8
 71
     2
 72
     8
 73
     5
 74
     0
 42
0.000000001
 43
0.0000000001
 40
0.0
 40
0.0
 40
0.0
 40
1.0
 40
2.0
 40
3.0
 40
3.0
 40
3.0
 10
-2.312379288193541
 20
15.62070157334352
 30
0.0
 10
-2.208900245502332
 20
15.68044522649677
 30
0.0
 10
-1.935111945048509
 20
15.72898694468379
 30
0.0
 10
-1.669946898152287
 20
15.67608891845434
 30
0.0
 10
-1.554071928472028
 20
15.6091884735171
 30
0.0
  0
LINE
  5
1EB1
330
1E7C
100
AcDbEntity
  8
0
100
AcDbLine
 10
-2.312379288193541
 20
15.62070157334352
 30
0.0
 11
-2.312379288193541
 21
15.51700650756569
 31
0.0
  0
SPLINE
  5
1EB2
330
1E7C
100
AcDbEntity
  8
0
100
AcDbSpline
210
0.0
220
0.0
230
1.0
 70
     8
 71
     2
 72
     6
 73
     3
 74
     0
 42
0.000000001
 43
0.0000000001
 40
0.0
 40
0.0
 40
0.0
 40
0.6001167586813893
 40
0.6001167586813893
 40
0.6001167586813893
 10
-2.312379288193541
 20
15.51700650756569
 30
0.0
 10
-2.25027978050224
 20
15.55285967504781
 30
0.0
 10
-2.176146151837878
 20
15.57593766607684
 30
0.0
  0
SPLINE
  5
1EB3
330
1E7C
100
AcDbEntity
  8
0
100
AcDbSpline
210
0.0
220
0.0
230
1.0
 70
     8
 71
     2
 72
     6
 73
     3
 74
     0
 42
0.000000001
 43
0.0000000001
 40
2.955226219562779
 40
2.955226219562779
 40
2.955226219562779
 40
3.0
 40
3.0
 40
3.0
 10
-1.564481742862893
 20
15.51140308676674
 30
0.0
 10
-1.559260088922661
 20
15.50848879357206
 30
0.0
 10
-1.554071928472028
 20
15.50549340773928
 30
0.0
  0
SPLINE
  5
1EB4
330
1E7C
100
AcDbEntity
  8
0
100
AcDbSpline
210
0.0
220
0.0
230
1.0
 70
     8
 71
     2
 72
     8
 73
     5
 74
     0
 42
0.000000001
 43
0.0000000001
 40
0.0
 40
0.0
 40
0.0
 40
1.0
 40
2.0
 40
3.0
 40
3.0
 40
3.0
 10
-2.277347320615791
 20
15.18227028535948
 30
0.0
 10
-2.39214438360135
 20
15.24854840057637
 30
0.0
 10
-2.489694939471708
 20
15.40817597384522
 30
0.0
 10
-2.416397284232101
 20
15.56064675533009
 30
0.0
 10
-2.312379288193541
 20
15.62070157334352
 30
0.0
  0
SPLINE
  5
1EB5
330
1E7C
100
AcDbEntity
  8
0
100
AcDbSpline
210
0.0
220
0.0
230
1.0
 70
     8
 71
     2
 72
     7
 73
     4
 74
     0
 42
0.000000001
 43
0.0000000001
 40
1.904314241883448
 40
1.904314241883448
 40
1.904314241883448
 40
2.0
 40
3.0
 40
3.0
 40
3.0
 10
-2.459277530585131
 20
15.36609425354345
 30
0.0
 10
-2.456552882706788
 20
15.37342165765133
 30
0.0
 10
-2.416397284232101
 20
15.45695168955227
 30
0.0
 10
-2.312379288193541
 20
15.51700650756569
 30
0.0
  0
SPLINE
  5
1EB6
330
1E7C
100
AcDbEntity
  8
0
100
AcDbSpline
210
0.0
220
0.0
230
1.0
 70
     8
 71
     2
 72
     7
 73
     4
 74
     0
 42
0.000000001
 43
0.0000000001
 40
0.0
 40
0.0
 40
0.0
 40
1.0
 40
2.0
 40
2.0
 40
2.0
 10
-1.845106736041055
 20
15.06029366017158
 30
0.0
 10
-1.976072399447116
 20
15.07242908971834
 30
0.0
 10
-2.192731645081833
 20
15.13341740231228
 30
0.0
 10
-2.277347320615791
 20
15.18227028535948
 30
0.0
  0
LINE
  5
1EB7
330
1E7C
100
AcDbEntity
  8
0
100
AcDbLine
 10
-1.583175409228931
 20
15.21151978221576
 30
0.0
 11
-1.845106736041055
 21
15.06029366017158
 31
0.0
  0
LINE
  5
1EB8
330
1E7C
100
AcDbEntity
  8
0
100
AcDbLine
 10
-1.912475904459809
 20
15.40164151178158
 30
0.0
 11
-1.583175409228931
 21
15.21151978221576
 31
0.0
  0
LINE
  5
1EB9
330
1E7C
100
AcDbEntity
  8
0
100
AcDbLine
 10
-1.912475904459809
 20
15.40164151178158
 30
0.0
 11
-1.912475904459809
 21
15.30518040512789
 31
0.0
  0
LINE
  5
1EBA
330
1E7C
100
AcDbEntity
  8
0
100
AcDbLine
 10
-1.767497454022648
 20
15.21424309861717
 30
0.0
 11
-1.672977970439623
 21
15.15967224932684
 31
0.0
  0
LINE
  5
1EBB
330
1E7C
100
AcDbEntity
  8
0
100
AcDbLine
 10
-1.996013673299066
 20
15.35341095845474
 30
0.0
 11
-1.912475904459809
 21
15.40164151178158
 31
0.0
  0
LINE
  5
1EBC
330
1E7C
100
AcDbEntity
  8
0
100
AcDbLine
 10
-2.334613886165494
 20
15.40161688165141
 30
0.0
 11
-2.334613886165494
 21
15.29792181587359
 31
0.0
  0
LINE
  5
1EBD
330
1E7C
100
AcDbEntity
  8
0
100
AcDbLine
 10
-1.519974708106085
 20
15.4278317779447
 30
0.0
 11
-1.519974708106085
 21
15.32977507015402
 31
0.0
  0
SPLINE
  5
1EBE
330
1E7C
100
AcDbEntity
  8
0
100
AcDbSpline
210
0.0
220
0.0
230
1.0
 70
     8
 71
     3
 72
    12
 73
     8
 74
     0
 42
0.000000001
 43
0.0000000001
 40
0.0701625880555413
 40
0.0701625880555413
 40
0.0701625880555413
 40
0.0701625880555413
 40
0.0876266719572695
 40
0.0876266719572695
 40
0.1050907558589977
 40
0.1050907558589977
 40
0.121349748553623
 40
0.121349748553623
 40
0.121349748553623
 40
0.121349748553623
 10
-0.5111676140774796
 20
15.18698289308648
 30
0.0
 10
-0.454937581833618
 20
15.19568170934769
 30
0.0
 10
-0.3922243072194632
 20
15.1956922017364
 30
0.0
 10
-0.2727170235771127
 20
15.17578849286242
 30
0.0
 10
-0.2159242089023029
 20
15.15585897907892
 30
0.0
 10
-0.1270606690216035
 20
15.10600194213042
 30
0.0
 10
-0.0891693016953947
 20
15.07449111153663
 30
0.0
 10
-0.0622418152746701
 20
15.03877994456282
 30
0.0
  0
SPLINE
  5
1EBF
330
1E7C
100
AcDbEntity
  8
0
100
AcDbSpline
210
0.0
220
0.0
230
1.0
 70
     8
 71
     3
 72
    18
 73
    14
 74
     0
 42
0.000000001
 43
0.0000000001
 40
0.028525742117437
 40
0.028525742117437
 40
0.028525742117437
 40
0.028525742117437
 40
0.0417123967319211
 40
0.0417123967319211
 40
0.0621425582382483
 40
0.0621425582382483
 40
0.0825727197445755
 40
0.0825727197445755
 40
0.1030028812509027
 40
0.1030028812509027
 40
0.1234330427572299
 40
0.1234330427572299
 40
0.1366196973717141
 40
0.1366196973717141
 40
0.1366196973717141
 40
0.1366196973717141
 10
-0.0622418152746701
 20
15.03877994456282
 30
0.0
 10
-0.0400439819450731
 20
15.00934123201073
 30
0.0
 10
-0.0140214533117351
 20
14.98199816628317
 30
0.0
 10
0.0570445641339854
 20
14.9205291382993
 30
0.0
 10
0.1118598605864508
 20
14.88514892699153
 30
0.0
 10
0.2348496768877814
 20
14.83047520840343
 30
0.0
 10
0.3030370704903638
 20
14.81125275315705
 30
0.0
 10
0.4345972080518186
 20
14.79090032904704
 30
0.0
 10
0.5082892553598311
 20
14.78817395839961
 30
0.0
 10
0.6541990676600893
 20
14.80124875967306
 30
0.0
 10
0.7264237010715359
 20
14.81697582543522
 30
0.0
 10
0.8306389434740161
 20
14.85132874815278
 30
0.0
 10
0.8720754077138074
 20
14.86823587136435
 30
0.0
 10
0.911627760467568
 20
14.88812179688433
 30
0.0
  0
SPLINE
  5
1EC0
330
1E7C
100
AcDbEntity
  8
0
100
AcDbSpline
210
0.0
220
0.0
230
1.0
 70
     8
 71
     3
 72
    12
 73
     8
 74
     0
 42
0.000000001
 43
0.0000000001
 40
0.0189754275574595
 40
0.0189754275574595
 40
0.0189754275574595
 40
0.0189754275574595
 40
0.0352344202520848
 40
0.0352344202520848
 40
0.052698504153813
 40
0.052698504153813
 40
0.0701625880555413
 40
0.0701625880555413
 40
0.0701625880555413
 40
0.0701625880555413
 10
0.911627760467568
 20
14.88812179688433
 30
0.0
 10
0.9596074630750537
 20
14.912244781387
 30
0.0
 10
1.014069987187359
 20
14.92946841525382
 30
0.0
 10
1.12480101390305
 20
14.94844806529229
 30
0.0
 10
1.187130518250474
 20
14.94994929219007
 30
0.0
 10
1.302416879772615
 20
14.93353029774908
 30
0.0
 10
1.355372652329687
 20
14.91562574148916
 30
0.0
 10
1.39653589284343
 20
14.89186013349783
 30
0.0
  0
SPLINE
  5
1EC1
330
1E7C
100
AcDbEntity
  8
0
100
AcDbSpline
210
0.0
220
0.0
230
1.0
 70
     8
 71
     3
 72
    12
 73
     8
 74
     0
 42
0.000000001
 43
0.0000000001
 40
0.0701625880555413
 40
0.0701625880555413
 40
0.0701625880555413
 40
0.0701625880555413
 40
0.0876266719572696
 40
0.0876266719572696
 40
0.1050907558589978
 40
0.1050907558589978
 40
0.1213497485536232
 40
0.1213497485536232
 40
0.1213497485536232
 40
0.1213497485536232
 10
-1.90770350692091
 20
14.38069251942035
 30
0.0
 10
-1.892636715190791
 20
14.41315694367289
 30
0.0
 10
-1.863627901182036
 20
14.44374146560257
 30
0.0
 10
-1.783453349248284
 20
14.49039836858729
 30
0.0
 10
-1.732288295582771
 20
14.50645481091723
 30
0.0
 10
-1.629360071217627
 20
14.52052836205068
 30
0.0
 10
-1.572919579672875
 20
14.52046148441388
 30
0.0
 10
-1.516743783445391
 20
14.51245141165614
 30
0.0
  0
SPLINE
  5
1EC2
330
1E7C
100
AcDbEntity
  8
0
100
AcDbSpline
210
0.0
220
0.0
230
1.0
 70
     8
 71
     3
 72
    18
 73
    14
 74
     0
 42
0.000000001
 43
0.0000000001
 40
0.028525742117437
 40
0.028525742117437
 40
0.028525742117437
 40
0.028525742117437
 40
0.0417123967319211
 40
0.0417123967319211
 40
0.0621425582382483
 40
0.0621425582382483
 40
0.0825727197445755
 40
0.0825727197445755
 40
0.1030028812509027
 40
0.1030028812509027
 40
0.1234330427572299
 40
0.1234330427572299
 40
0.136619697371714
 40
0.136619697371714
 40
0.136619697371714
 40
0.136619697371714
 10
-1.516743783445391
 20
14.51245141165614
 30
0.0
 10
-1.470434932246587
 20
14.50584826061351
 30
0.0
 10
-1.424687399530595
 20
14.50242854866906
 30
0.0
 10
-1.315247322212114
 20
14.50112821893992
 30
0.0
 10
-1.244965884037917
 20
14.50744691917437
 30
0.0
 10
-1.115232492112362
 20
14.53701426999524
 30
0.0
 10
-1.055781515663698
 20
14.56033793809927
 30
0.0
 10
-0.9594728107179623
 20
14.61594179482499
 30
0.0
 10
-0.9150608278706052
 20
14.65258343422935
 30
0.0
 10
-0.8479460295233959
 20
14.73666643905196
 30
0.0
 10
-0.8252277844472224
 20
14.78404113097666
 30
0.0
 10
-0.8063530739421386
 20
14.85942403799674
 30
0.0
 10
-0.8027171964475734
 20
14.89135527511976
 30
0.0
 10
-0.8038217740565258
 20
14.92405712568801
 30
0.0
  0
SPLINE
  5
1EC3
330
1E7C
100
AcDbEntity
  8
0
100
AcDbSpline
210
0.0
220
0.0
230
1.0
 70
     8
 71
     3
 72
    12
 73
     8
 74
     0
 42
0.000000001
 43
0.0000000001
 40
0.0189754275574595
 40
0.0189754275574595
 40
0.0189754275574595
 40
0.0189754275574595
 40
0.0352344202520848
 40
0.0352344202520848
 40
0.052698504153813
 40
0.052698504153813
 40
0.0701625880555413
 40
0.0701625880555413
 40
0.0701625880555413
 40
0.0701625880555413
 10
-0.8038217740565258
 20
14.92405712568801
 30
0.0
 10
-0.8051617020631953
 20
14.96372670172428
 30
0.0
 10
-0.7939944527982529
 20
15.00282692671686
 30
0.0
 10
-0.7508093135001493
 20
15.07311196542659
 30
0.0
 10
-0.7147707773259593
 20
15.10740253916491
 30
0.0
 10
-0.6230644517050051
 20
15.15998110710495
 30
0.0
 10
-0.5673976463213411
 20
15.17828407682527
 30
0.0
 10
-0.5111676140774796
 20
15.18698289308648
 30
0.0
  0
SPLINE
  5
1EC4
330
1E7C
100
AcDbEntity
  8
0
100
AcDbSpline
210
0.0
220
0.0
230
1.0
 70
     8
 71
     3
 72
     8
 73
     4
 74
     0
 42
0.000000001
 43
0.0000000001
 40
0.1208309966638755
 40
0.1208309966638755
 40
0.1208309966638755
 40
0.1208309966638755
 40
0.1213497485536227
 40
0.1213497485536227
 40
0.1213497485536227
 40
0.1213497485536227
 10
-1.457268808394893
 20
13.52006384411479
 30
0.0
 10
-1.456357442842429
 20
13.52072574591563
 30
0.0
 10
-1.455435151195594
 20
13.52138322613569
 30
0.0
 10
-1.45450196817072
 20
13.52203616111744
 30
0.0
  0
SPLINE
  5
1EC5
330
1E7C
100
AcDbEntity
  8
0
100
AcDbSpline
210
0.0
220
0.0
230
1.0
 70
     8
 71
     3
 72
    18
 73
    14
 74
     0
 42
0.000000001
 43
0.0000000001
 40
0.028525742117437
 40
0.028525742117437
 40
0.028525742117437
 40
0.028525742117437
 40
0.041712396731921
 40
0.041712396731921
 40
0.0621425582382483
 40
0.0621425582382483
 40
0.0825727197445755
 40
0.0825727197445755
 40
0.1030028812509027
 40
0.1030028812509027
 40
0.1234330427572299
 40
0.1234330427572299
 40
0.136619697371714
 40
0.136619697371714
 40
0.136619697371714
 40
0.136619697371714
 10
-1.45450196817072
 20
13.52203616111744
 30
0.0
 10
-1.430390950301515
 20
13.53890629976415
 30
0.0
 10
-1.41066594621886
 20
13.55731076675257
 30
0.0
 10
-1.372291886346099
 20
13.60528181608718
 30
0.0
 10
-1.356825744624368
 20
13.64018304295361
 30
0.0
 10
-1.350082169000144
 20
13.71524271629107
 30
0.0
 10
-1.358818586154062
 20
13.75547123749335
 30
0.0
 10
-1.39407001876978
 20
13.83142751832908
 30
0.0
 10
-1.423350083230436
 20
13.873113130529
 30
0.0
 10
-1.502145097183485
 20
13.95330273014966
 30
0.0
 10
-1.551651485518758
 20
13.991748040988
 30
0.0
 10
-1.636992017416154
 20
14.04497567421064
 30
0.0
 10
-1.67479260416138
 20
14.06551867491678
 30
0.0
 10
-1.715449534524093
 20
14.0843000228278
 30
0.0
  0
SPLINE
  5
1EC6
330
1E7C
100
AcDbEntity
  8
0
100
AcDbSpline
210
0.0
220
0.0
230
1.0
 70
     8
 71
     3
 72
    12
 73
     8
 74
     0
 42
0.000000001
 43
0.0000000001
 40
0.0189754275574596
 40
0.0189754275574596
 40
0.0189754275574596
 40
0.0189754275574596
 40
0.0352344202520849
 40
0.0352344202520849
 40
0.0526985041538131
 40
0.0526985041538131
 40
0.0701625880555413
 40
0.0701625880555413
 40
0.0701625880555413
 40
0.0701625880555413
 10
-1.715449534524093
 20
14.0843000228278
 30
0.0
 10
-1.764769165138248
 20
14.1070830793238
 30
0.0
 10
-1.808064439985613
 20
14.13547396245557
 30
0.0
 10
-1.8756103274032
 20
14.19763875179214
 30
0.0
 10
-1.901901295576434
 20
14.23517851486411
 30
0.0
 10
-1.92548133147762
 20
14.31046584604407
 30
0.0
 10
-1.922770298651029
 20
14.34822809516782
 30
0.0
 10
-1.90770350692091
 20
14.38069251942035
 30
0.0
  0
SPLINE
  5
1EC7
330
1E7C
100
AcDbEntity
  8
0
100
AcDbSpline
210
0.0
220
0.0
230
1.0
 70
     8
 71
     3
 72
    14
 73
    10
 74
     0
 42
0.000000001
 43
0.0000000001
 40
0.0560019654545531
 40
0.0560019654545531
 40
0.0560019654545531
 40
0.0560019654545531
 40
0.0621425582382483
 40
0.0621425582382483
 40
0.0825727197445755
 40
0.0825727197445755
 40
0.1030028812509027
 40
0.1030028812509027
 40
0.1174535963263886
 40
0.1174535963263886
 40
0.1174535963263886
 40
0.1174535963263886
 10
-0.1198497070333121
 20
13.1515006029059
 30
0.0
 10
-0.1369917586585491
 20
13.15753496613004
 30
0.0
 10
-0.1548715477842601
 20
13.16331973982221
 30
0.0
 10
-0.2348496768877812
 20
13.18693210099509
 30
0.0
 10
-0.3030370704903635
 20
13.20151935194521
 30
0.0
 10
-0.4345972080518184
 20
13.22187177605521
 30
0.0
 10
-0.5082892553598314
 20
13.22923335099891
 30
0.0
 10
-0.6328468158408053
 20
13.23374750417459
 30
0.0
 10
-0.6840841108728202
 20
13.23322835812305
 30
0.0
 10
-0.7320687734738206
 20
13.23062274846362
 30
0.0
  0
SPLINE
  5
1EC8
330
1E7C
100
AcDbEntity
  8
0
100
AcDbSpline
210
0.0
220
0.0
230
1.0
 70
     8
 71
     3
 72
     8
 73
     4
 74
     0
 42
0.000000001
 43
0.0000000001
 40
0.1171568331781045
 40
0.1171568331781045
 40
0.1171568331781045
 40
0.1171568331781045
 40
0.121349748553623
 40
0.121349748553623
 40
0.121349748553623
 40
0.121349748553623
 10
1.560135490984932
 20
13.59053674925124
 30
0.0
 10
1.545734935500763
 20
13.58804349308052
 30
0.0
 10
1.531230557882041
 20
13.585944636418
 30
0.0
 10
1.516743783445389
 20
13.5842779763921
 30
0.0
  0
SPLINE
  5
1EC9
330
1E7C
100
AcDbEntity
  8
0
100
AcDbSpline
210
0.0
220
0.0
230
1.0
 70
     8
 71
     3
 72
    16
 73
    12
 74
     0
 42
0.000000001
 43
0.0000000001
 40
0.028525742117437
 40
0.028525742117437
 40
0.028525742117437
 40
0.028525742117437
 40
0.0417123967319209
 40
0.0417123967319209
 40
0.062142558238248
 40
0.062142558238248
 40
0.0825727197445751
 40
0.0825727197445751
 40
0.1030028812509022
 40
0.1030028812509022
 40
0.1194378483461129
 40
0.1194378483461129
 40
0.1194378483461129
 40
0.1194378483461129
 10
1.516743783445389
 20
13.5842779763921
 30
0.0
 10
1.470434932246587
 20
13.57895028170922
 30
0.0
 10
1.424687399530595
 20
13.5713322200643
 30
0.0
 10
1.315247322212115
 20
13.54823725195319
 30
0.0
 10
1.244965884037918
 20
13.52832318236716
 30
0.0
 10
1.115232492112364
 20
13.48039303940328
 30
0.0
 10
1.0557815156637
 20
13.45243416700298
 30
0.0
 10
0.9594728107179651
 20
13.39683031027726
 30
0.0
 10
0.9150608278706078
 20
13.36482387516917
 30
0.0
 10
0.8545083043046565
 20
13.30552957905204
 30
0.0
 10
0.8345275628005504
 20
13.2785005333884
 30
0.0
 10
0.8217737291562048
 20
13.25280878836423
 30
0.0
  0
SPLINE
  5
1ECA
330
1E7C
100
AcDbEntity
  8
0
100
AcDbSpline
210
0.0
220
0.0
230
1.0
 70
     8
 71
     3
 72
    10
 73
     6
 74
     0
 42
0.000000001
 43
0.0000000001
 40
0.0189754275574595
 40
0.0189754275574595
 40
0.0189754275574595
 40
0.0189754275574595
 40
0.0352344202520848
 40
0.0352344202520848
 40
0.0425305134940944
 40
0.0425305134940944
 40
0.0425305134940944
 40
0.0425305134940944
 10
1.715449534524093
 20
14.01242936522044
 30
0.0
 10
1.764769165138248
 20
14.00411923864923
 30
0.0
 10
1.808064439985611
 20
13.9887569395295
 30
0.0
 10
1.855244274786318
 20
13.96050599627554
 30
0.0
 10
1.86834150781257
 20
13.95051733744992
 30
0.0
 10
1.879498403777081
 20
13.93956614164879
 30
0.0
  0
SPLINE
  5
1ECB
330
1E7C
100
AcDbEntity
  8
0
100
AcDbSpline
210
0.0
220
0.0
230
1.0
 70
     8
 71
     3
 72
    12
 73
     8
 74
     0
 42
0.000000001
 43
0.0000000001
 40
0.0701625880555413
 40
0.0701625880555413
 40
0.0701625880555413
 40
0.0701625880555413
 40
0.0876266719572695
 40
0.0876266719572695
 40
0.1050907558589977
 40
0.1050907558589977
 40
0.121349748553623
 40
0.121349748553623
 40
0.121349748553623
 40
0.121349748553623
 10
1.39653589284343
 20
14.89186013349783
 30
0.0
 10
1.437699133357173
 20
14.8680945255065
 30
0.0
 10
1.471403593962572
 20
14.83596577282203
 30
0.0
 10
1.51073632567117
 20
14.7631153921644
 30
0.0
 10
1.516364086680467
 20
14.72237901981953
 30
0.0
 10
1.502299402196023
 20
14.64758903107228
 30
0.0
 10
1.483750277977481
 20
14.60963078610927
 30
0.0
 10
1.45450196817072
 20
14.57469322693081
 30
0.0
  0
SPLINE
  5
1ECC
330
1E7C
100
AcDbEntity
  8
0
100
AcDbSpline
210
0.0
220
0.0
230
1.0
 70
     8
 71
     3
 72
    18
 73
    14
 74
     0
 42
0.000000001
 43
0.0000000001
 40
0.028525742117437
 40
0.028525742117437
 40
0.028525742117437
 40
0.028525742117437
 40
0.0417123967319211
 40
0.0417123967319211
 40
0.0621425582382483
 40
0.0621425582382483
 40
0.0825727197445755
 40
0.0825727197445755
 40
0.1030028812509027
 40
0.1030028812509027
 40
0.1234330427572299
 40
0.1234330427572299
 40
0.1366196973717139
 40
0.1366196973717139
 40
0.1366196973717139
 40
0.1366196973717139
 10
1.45450196817072
 20
14.57469322693081
 30
0.0
 10
1.430390950301515
 20
14.54589224255858
 30
0.0
 10
1.41066594621886
 20
14.51645000198079
 30
0.0
 10
1.372291886346099
 20
14.44408365480593
 30
0.0
 10
1.356825744624368
 20
14.39558705858792
 30
0.0
 10
1.350082169000144
 20
14.30216459310745
 30
0.0
 10
1.358818586154062
 20
14.2573008676089
 30
0.0
 10
1.394070018769781
 20
14.18134458677317
 30
0.0
 10
1.423350083230436
 20
14.14429417886952
 30
0.0
 10
1.502145097183485
 20
14.08246737139187
 30
0.0
 10
1.551651485518758
 20
14.05761742990512
 30
0.0
 10
1.636992017416154
 20
14.02878509452272
 30
0.0
 10
1.67479260416138
 20
14.01927986740595
 30
0.0
 10
1.715449534524093
 20
14.01242936522044
 30
0.0
  0
ELLIPSE
  5
1ECD
330
1E7C
100
AcDbEntity
  8
0
100
AcDbEllipse
 10
0.0
 20
14.0855697598317
 30
0.0
 11
1.974999999999999
 21
-0.0000000000000007
 31
0.0
210
0.0
220
0.0
230
1.0
 40
0.5773502691896258
 41
0.7853981633974492
 42
1.832595714594045
  0
ELLIPSE
  5
1ECE
330
1E7C
100
AcDbEntity
  8
0
100
AcDbEllipse
 10
0.0
 20
14.0855697598317
 30
0.0
 11
-1.974999999999999
 21
0.0000000000000002
 31
0.0
210
0.0
220
0.0
230
1.0
 40
0.5773502691896258
 41
4.974188368183839
 42
6.021385919380437
  0
ELLIPSE
  5
1ECF
330
1E7C
100
AcDbEntity
  8
0
100
AcDbEllipse
 10
0.0
 20
14.0855697598317
 30
0.0
 11
-1.974999999999999
 21
0.0000000000000006
 31
0.0
210
0.0
220
0.0
230
1.0
 40
0.5773502691896258
 41
6.021385919380437
 42
6.193558171728798
  0
ELLIPSE
  5
1ED0
330
1E7C
100
AcDbEntity
  8
0
100
AcDbEllipse
 10
0.0
 20
14.0855697598317
 30
0.0
 11
1.974999999999999
 21
-0.0000000000000003
 31
0.0
210
0.0
220
0.0
230
1.0
 40
0.5773502691896258
 41
0.0896271354507867
 42
0.7853981633974483
  0
ELLIPSE
  5
1ED1
330
1E7C
100
AcDbEntity
  8
0
100
AcDbEllipse
 10
0.0
 20
14.28969390506363
 30
0.0
 11
1.974999999999999
 21
-0.0000000000000001
 31
0.0
210
0.0
220
0.0
230
1.0
 40
0.5773502691896257
 41
0.0
 42
6.283185307179586
  0
LINE
  5
1ED2
330
1E7C
100
AcDbEntity
  8
0
100
AcDbLine
 10
-1.45450196817072
 20
13.52203616111744
 30
0.0
 11
-1.45450196817072
 21
13.51832088146923
 31
0.0
  0
LINE
  5
1ED3
330
1E7C
100
AcDbEntity
  8
0
100
AcDbLine
 10
1.715449534524093
 20
14.01242936522044
 30
0.0
 11
1.715449534524093
 21
13.72463995645899
 31
0.0
  0
LINE
  5
1ED4
330
1E7C
100
AcDbEntity
  8
0
100
AcDbLine
 10
0.911627760467568
 20
14.88812179688433
 30
0.0
 11
0.911627760467568
 21
13.64297447764919
 31
0.0
  0
SPLINE
  5
1ED5
330
1E7C
100
AcDbEntity
  8
0
100
AcDbSpline
210
0.0
220
0.0
230
1.0
 70
     8
 71
     3
 72
    12
 73
     8
 74
     0
 42
0.000000001
 43
0.0000000001
 40
0.1758978908950095
 40
0.1758978908950095
 40
0.1758978908950095
 40
0.1758978908950095
 40
0.1876544926563665
 40
0.1876544926563665
 40
0.2051185765580947
 40
0.2051185765580947
 40
0.22137756925272
 40
0.22137756925272
 40
0.22137756925272
 40
0.22137756925272
 10
1.352647353202112
 20
13.66800168936136
 30
0.0
 10
1.320258782634619
 20
13.68114579544642
 30
0.0
 10
1.283578363732535
 20
13.69106594539792
 30
0.0
 10
1.187130518250474
 20
13.70480197295493
 30
0.0
 10
1.12480101390305
 20
13.70330074605715
 30
0.0
 10
1.014069987187359
 20
13.68432109601869
 30
0.0
 10
0.959607463075053
 20
13.66709746215186
 30
0.0
 10
0.911627760467568
 20
13.64297447764919
 30
0.0
  0
LINE
  5
1ED6
330
1E7C
100
AcDbEntity
  8
0
100
AcDbLine
 10
-1.516743783445391
 20
14.51245141165614
 30
0.0
 11
-1.516743783445391
 21
13.96227959088103
 31
0.0
  0
SPLINE
  5
1ED7
330
1E7C
100
AcDbEntity
  8
0
100
AcDbSpline
210
0.0
220
0.0
230
1.0
 70
     8
 71
     3
 72
    18
 73
    14
 74
     0
 42
0.000000001
 43
0.0000000001
 40
0.1190032482565566
 40
0.1190032482565566
 40
0.1190032482565566
 40
0.1190032482565566
 40
0.1352622409511818
 40
0.1352622409511818
 40
0.15272632485291
 40
0.15272632485291
 40
0.1701904087546383
 40
0.1701904087546383
 40
0.1876544926563666
 40
0.1876544926563666
 40
0.2051185765580948
 40
0.2051185765580948
 40
0.2189579795830252
 40
0.2189579795830252
 40
0.2189579795830252
 40
0.2189579795830252
 10
-0.0622418152746704
 20
13.79363262532768
 30
0.0
 10
-0.0891693016953949
 20
13.8293437923015
 30
0.0
 10
-0.1270606690216032
 20
13.86085462289528
 30
0.0
 10
-0.2159242089023031
 20
13.91071165984378
 30
0.0
 10
-0.272717023577113
 20
13.93064117362728
 30
0.0
 10
-0.392224307219463
 20
13.95054488250127
 30
0.0
 10
-0.4549375818336181
 20
13.95053439011255
 30
0.0
 10
-0.5673976463213414
 20
13.93313675759014
 30
0.0
 10
-0.6230644517050051
 20
13.91483378786981
 30
0.0
 10
-0.7147707773259596
 20
13.86225521992977
 30
0.0
 10
-0.7508093135001497
 20
13.82796464619145
 30
0.0
 10
-0.7908959716548893
 20
13.76272247339908
 30
0.0
 10
-0.8016241915934894
 20
13.73010136049473
 30
0.0
 10
-0.8035984306850794
 20
13.69656701419105
 30
0.0
  0
LINE
  5
1ED8
330
1E7C
100
AcDbEntity
  8
0
100
AcDbLine
 10
-0.0622418152746701
 20
15.03877994456282
 30
0.0
 11
-0.0622418152746704
 21
13.79363262532768
 31
0.0
  0
SPLINE
  5
1ED9
330
1E7C
100
AcDbEntity
  8
0
100
AcDbSpline
210
0.0
220
0.0
230
1.0
 70
     8
 71
     3
 72
    18
 73
    14
 74
     0
 42
0.000000001
 43
0.0000000001
 40
0.2877940432104188
 40
0.2877940432104188
 40
0.2877940432104188
 40
0.2877940432104188
 40
0.3009806978249029
 40
0.3009806978249029
 40
0.3214108593312301
 40
0.3214108593312301
 40
0.3418410208375573
 40
0.3418410208375573
 40
0.3622711823438845
 40
0.3622711823438845
 40
0.3827013438502117
 40
0.3827013438502117
 40
0.3958879984646958
 40
0.3958879984646958
 40
0.3958879984646958
 40
0.3958879984646958
 10
0.911627760467568
 20
13.64297447764919
 30
0.0
 10
0.8720754077138071
 20
13.62308855212921
 30
0.0
 10
0.8306389434740159
 20
13.60618142891764
 30
0.0
 10
0.7264237010715357
 20
13.57182850620008
 30
0.0
 10
0.6541990676600893
 20
13.55610144043792
 30
0.0
 10
0.5082892553598308
 20
13.54302663916447
 30
0.0
 10
0.4345972080518185
 20
13.5457530098119
 30
0.0
 10
0.3030370704903635
 20
13.56610543392191
 30
0.0
 10
0.2348496768877815
 20
13.58532788916829
 30
0.0
 10
0.1118598605864507
 20
13.64000160775639
 30
0.0
 10
0.0570445641339851
 20
13.67538181906416
 30
0.0
 10
-0.0140214533117354
 20
13.73685084704803
 30
0.0
 10
-0.0400439819450732
 20
13.7641939127756
 30
0.0
 10
-0.0622418152746704
 20
13.79363262532768
 30
0.0
  0
SPLINE
  5
1EDA
330
1E7C
100
AcDbEntity
  8
0
100
AcDbSpline
210
0.0
220
0.0
230
1.0
 70
     8
 71
     3
 72
    14
 73
    10
 74
     0
 42
0.000000001
 43
0.0000000001
 40
0.2893731803585742
 40
0.2893731803585742
 40
0.2893731803585742
 40
0.2893731803585742
 40
0.3009806978249028
 40
0.3009806978249028
 40
0.32141085933123
 40
0.32141085933123
 40
0.3418410208375573
 40
0.3418410208375573
 40
0.3470423657831648
 40
0.3470423657831648
 40
0.3470423657831648
 40
0.3470423657831648
 10
-0.803627220005578
 20
13.66719728942335
 30
0.0
 10
-0.8036420441056792
 20
13.63859411602151
 30
0.0
 10
-0.8072397062874545
 20
13.61073563538287
 30
0.0
 10
-0.8252277844472224
 20
13.53889381174152
 30
0.0
 10
-0.8479460295233959
 20
13.49151911981682
 30
0.0
 10
-0.9150608278706052
 20
13.40743611499421
 30
0.0
 10
-0.9594728107179623
 20
13.37079447558986
 30
0.0
 10
-1.019886850798594
 20
13.33591441328647
 30
0.0
 10
-1.032878749637613
 20
13.32912654593046
 30
0.0
 10
-1.04650581414262
 20
13.32269597109395
 30
0.0
  0
LINE
  5
1EDB
330
1E7C
100
AcDbEntity
  8
0
100
AcDbLine
 10
-1.352711255005134
 20
13.69439561494955
 30
0.0
 11
-1.352711255005134
 21
13.45887156934589
 31
0.0
  0
LINE
  5
1EDC
330
1E7C
100
AcDbEntity
  8
0
100
AcDbLine
 10
1.352711255005134
 20
14.32842728388101
 30
0.0
 11
1.352711255005134
 21
13.55583904420993
 31
0.0
  0
LINE
  5
1EDD
330
1E7C
100
AcDbEntity
  8
0
100
AcDbLine
 10
-0.803623722906652
 20
14.91234435209735
 30
0.0
 11
-0.8036237229066522
 21
13.66719703286221
 31
0.0
  0
ELLIPSE
  5
1EDE
330
1E7C
100
AcDbEntity
  8
0
100
AcDbEllipse
 10
0.0
 20
14.28969390506363
 30
0.0
 11
-3.5
 21
-0.0000000000002086
 31
0.0
210
0.0
220
0.0
230
1.0
 40
0.5773502691896258
 41
0.0
 42
6.283185307179586
  0
ELLIPSE
  5
1EDF
330
1E7C
100
AcDbEntity
  8
0
100
AcDbEllipse
 10
-0.0000000000000024
 20
2.042245191147737
 30
0.0
 11
1.3
 21
0.0000000000000779
 31
0.0
210
0.0
220
0.0
230
1.0
 40
0.5773502691896259
 41
3.926990816987
 42
5.497787143781893
  0
ELLIPSE
  5
1EE0
330
1E7C
100
AcDbEntity
  8
0
100
AcDbEllipse
 10
-0.0000000000000023
 20
2.225956921856475
 30
0.0
 11
-1.525
 21
0.0000000000000001
 31
0.0
210
0.0
220
0.0
230
1.0
 40
0.5773502691896259
 41
0.0000000000000006
 42
3.141592653589794
  0
ELLIPSE
  5
1EE1
330
1E7C
100
AcDbEntity
  8
0
100
AcDbEllipse
 10
-0.0000000000000006
 20
11.14234513068509
 30
0.0
 11
1.525000000000001
 21
0.0000000000000905
 31
0.0
210
0.0
220
0.0
230
1.0
 40
0.5773502691896258
 41
4.158563178569648
 42
5.266214782199492
  0
ELLIPSE
  5
1EE2
330
1E7C
100
AcDbEntity
  8
0
100
AcDbEllipse
 10
-0.0000000000000001
 20
13.799795956507
 30
0.0
 11
3.5
 21
-0.000000000000001
 31
0.0
210
0.0
220
0.0
230
1.0
 40
0.5773502691896257
 41
5.597954564943699
 42
6.283185307179588
  0
ELLIPSE
  5
1EE3
330
1E7C
100
AcDbEntity
  8
0
100
AcDbEllipse
 10
-0.0000000000000001
 20
13.799795956507
 30
0.0
 11
3.5
 21
0.0000000000002082
 31
0.0
210
0.0
220
0.0
230
1.0
 40
0.5773502691896258
 41
4.027158238148613
 42
5.397619722620391
  0
ELLIPSE
  5
1EE4
330
1E7C
100
AcDbEntity
  8
0
100
AcDbEllipse
 10
-0.0000000000000001
 20
13.799795956507
 30
0.0
 11
-3.5
 21
0.0000000000000006
 31
0.0
210
0.0
220
0.0
230
1.0
 40
0.5773502691896259
 41
0.0000000000000003
 42
0.6852307422358894
  0
ELLIPSE
  5
1EE5
330
1E7C
100
AcDbEntity
  8
0
100
AcDbEllipse
 10
-0.0000000000000045
 20
-9.070514843636534
 30
0.0
 11
1.299999999999998
 21
0.0000000000000776
 31
0.0
210
0.0
220
0.0
230
1.0
 40
0.5773502691896258
 41
3.755360065784266
 42
5.505305203698297
  0
LINE
  5
1EE6
330
1E7C
100
AcDbEntity
  8
0
100
AcDbLine
 10
-0.919238815542512
 20
1.511522413544714
 30
0.0
 11
-1.078337841309485
 21
1.603378278899083
 31
0.0
  0
LINE
  5
1EE7
330
1E7C
100
AcDbEntity
  8
0
100
AcDbLine
 10
0.9192388155425069
 20
1.511522413544714
 30
0.0
 11
1.07833784130948
 21
1.603378278899083
 31
0.0
  0
LINE
  5
1EE8
330
1E7C
100
AcDbEntity
  8
0
100
AcDbLine
 10
-1.525000000000003
 20
2.225956921856475
 30
0.0
 11
-1.525000000000001
 21
10.41514990880879
 31
0.0
  0
LINE
  5
1EE9
330
1E7C
100
AcDbEntity
  8
0
100
AcDbLine
 10
1.524999999999998
 20
2.225956921856475
 30
0.0
 11
1.525
 21
10.41514990880879
 31
0.0
  0
LINE
  5
1EEA
330
1E7C
100
AcDbEntity
  8
0
100
AcDbLine
 10
2.709955647322594
 20
12.38402504704497
 30
0.0
 11
3.161427849859233
 21
12.93273695233746
 31
0.0
  0
LINE
  5
1EEB
330
1E7C
100
AcDbEntity
  8
0
100
AcDbLine
 10
-2.70995564732259
 20
12.38402504704497
 30
0.0
 11
-3.161427849859234
 21
12.93273695233746
 31
0.0
  0
LINE
  5
1EEC
330
1E7C
100
AcDbEntity
  8
0
100
AcDbLine
 10
-3.5
 20
13.799795956507
 30
0.0
 11
-3.5
 21
14.28969390506363
 31
0.0
  0
LINE
  5
1EED
330
1E7C
100
AcDbEntity
  8
0
100
AcDbLine
 10
3.5
 20
13.799795956507
 30
0.0
 11
3.5
 21
14.28969390506363
 31
0.0
  0
LINE
  5
1EEE
330
1E7C
100
AcDbEntity
  8
0
100
AcDbLine
 10
0.0
 20
-14.28768642740679
 30
0.0
 11
-0.6274004205620076
 21
-11.79598933965043
 31
0.0
  0
LINE
  5
1EEF
330
1E7C
100
AcDbEntity
  8
0
100
AcDbLine
 10
-0.7381138020698003
 20
-11.35629532409412
 30
0.0
 11
-1.212840120701347
 21
-9.470937669159898
 31
0.0
  0
LINE
  5
1EF0
330
1E7C
100
AcDbEntity
  8
0
100
AcDbLine
 10
-1.300000000000003
 20
-8.803407778892314
 30
0.0
 11
-1.300000000000003
 21
-7.076659809273778
 31
0.0
  0
LINE
  5
1EF1
330
1E7C
100
AcDbEntity
  8
0
100
AcDbLine
 10
-1.300000000000003
 20
-6.111220789819766
 30
0.0
 11
-1.300000000000002
 21
-4.545520408397825
 31
0.0
  0
LINE
  5
1EF2
330
1E7C
100
AcDbEntity
  8
0
100
AcDbLine
 10
-1.300000000000002
 20
-3.580081388943812
 30
0.0
 11
-1.300000000000002
 21
-2.014381007521874
 31
0.0
  0
LINE
  5
1EF3
330
1E7C
100
AcDbEntity
  8
0
100
AcDbLine
 10
-1.300000000000002
 20
-1.048941988067859
 30
0.0
 11
-1.300000000000001
 21
0.8000777716104835
 31
0.0
  0
LINE
  5
1EF4
330
1E7C
100
AcDbEntity
  8
0
100
AcDbLine
 10
-1.300000000000001
 20
1.319886791722859
 30
0.0
 11
-1.300000000000001
 21
1.765658105868423
 31
0.0
  0
LINE
  5
1EF5
330
1E7C
100
AcDbEntity
  8
0
100
AcDbLine
 10
1.299999999999995
 20
-4.845651089381785
 30
0.0
 11
1.299999999999995
 21
-4.007700816595578
 31
0.0
  0
LINE
  5
1EF6
330
1E7C
100
AcDbEntity
  8
0
100
AcDbLine
 10
1.299999999999996
 20
-2.314511688505833
 30
0.0
 11
1.299999999999996
 21
-1.476561415719628
 31
0.0
  0
LINE
  5
1EF7
330
1E7C
100
AcDbEntity
  8
0
100
AcDbLine
 10
1.299999999999996
 20
0.2166277123701166
 30
0.0
 11
1.299999999999996
 21
1.765658105868423
 31
0.0
  0
SPLINE
  5
1EF8
330
1E7C
100
AcDbEntity
  8
0
100
AcDbSpline
210
0.0
220
0.0
230
1.0
 70
     8
 71
     3
 72
    14
 73
    10
 74
     0
 42
0.000000001
 43
0.0000000001
 40
1.418115877383924
 40
1.418115877383924
 40
1.418115877383924
 40
1.418115877383924
 40
2.553449081692271
 40
2.553449081692271
 40
2.553449081692271
 40
3.722726375294743
 40
3.722726375294743
 40
3.722726375294743
 40
4.625520821061293
 40
4.625520821061293
 40
4.625520821061293
 40
4.625520821061293
 10
1.594000053505899
 20
-8.683640184202346
 30
0.0
 10
1.125102553692119
 20
-9.173134689525237
 30
0.0
 10
0.3224132128429109
 20
-9.475916326379591
 30
0.0
 10
-0.3680189603575802
 20
-9.529320197067356
 30
0.0
 10
-1.079093612127111
 20
-9.584320731843158
 30
0.0
 10
-1.631990372627471
 20
-9.383536917813255
 30
0.0
 10
-1.739211643993431
 20
-9.145207250217833
 30
0.0
 10
-1.821996770145145
 20
-8.961193841812685
 30
0.0
 10
-1.639898103135833
 20
-8.769059610479253
 30
0.0
 10
-1.296733455120399
 20
-8.671988801870231
 30
0.0
  0
SPLINE
  5
1EF9
330
1E7C
100
AcDbEntity
  8
0
100
AcDbSpline
210
0.0
220
0.0
230
1.0
 70
     8
 71
     3
 72
     8
 73
     4
 74
     0
 42
0.000000001
 43
0.0000000001
 40
6.177009384789157
 40
6.177009384789157
 40
6.177009384789157
 40
6.177009384789157
 40
6.283185307179586
 40
6.283185307179586
 40
6.283185307179586
 40
6.283185307179586
 10
0.9816155441523704
 20
-9.223939142228772
 30
0.0
 10
1.022711221305672
 20
-9.259637809219853
 30
0.0
 10
1.061712289695698
 20
-9.296534917893806
 30
0.0
 10
1.098410028819918
 20
-9.334493756837261
 30
0.0
  0
SPLINE
  5
1EFA
330
1E7C
100
AcDbEntity
  8
0
100
AcDbSpline
210
0.0
220
0.0
230
1.0
 70
     8
 71
     3
 72
    20
 73
    16
 74
     0
 42
0.000000001
 43
0.0000000001
 40
0.0851027329263654
 40
0.0851027329263654
 40
0.0851027329263654
 40
0.0851027329263654
 40
0.1193926424992098
 40
0.1193926424992098
 40
0.1790889637488145
 40
0.1790889637488145
 40
0.2387852849984193
 40
0.2387852849984193
 40
0.2984816062480241
 40
0.2984816062480241
 40
0.358177927497629
 40
0.358177927497629
 40
0.4178742487472339
 40
0.4178742487472339
 40
0.4670420108191003
 40
0.4670420108191003
 40
0.4670420108191003
 40
0.4670420108191003
 10
-1.299999156218023
 20
-8.803407408381243
 30
0.0
 10
-1.299998873000265
 20
-8.828152841943744
 30
0.0
 10
-1.287306567679416
 20
-8.852876252422429
 30
0.0
 10
-1.217929438263729
 20
-8.916188113577153
 30
0.0
 10
-1.136608448552464
 20
-8.950547271935416
 30
0.0
 10
-0.9101918079220045
 20
-8.992067245440768
 30
0.0
 10
-0.7676431906348751
 20
-8.998735997434749
 30
0.0
 10
-0.4426848521906905
 20
-8.972056462152895
 30
0.0
 10
-0.2639306919267426
 20
-8.938983309939098
 30
0.0
 10
0.1025282085386132
 20
-8.826782454593395
 30
0.0
 10
0.286110534673387
 20
-8.748891943366416
 30
0.0
 10
0.629744114636284
 20
-8.548859829446062
 30
0.0
 10
0.7859297237713509
 20
-8.428943460741951
 30
0.0
 10
1.023447668585288
 20
-8.178416663003559
 30
0.0
 10
1.111136114151909
 20
-8.055501555677484
 30
0.0
 10
1.175499366920774
 20
-7.925359329744486
 30
0.0
  0
LINE
  5
1EFB
330
1E7C
100
AcDbEntity
  8
0
100
AcDbLine
 10
1.098410028819917
 20
-9.334493756837261
 30
0.0
 11
0.9347452005313998
 21
-9.538095575032199
 31
0.0
  0
SPLINE
  5
1EFC
330
1E7C
100
AcDbEntity
  8
0
100
AcDbSpline
210
0.0
220
0.0
230
1.0
 70
     8
 71
     3
 72
    10
 73
     6
 74
     0
 42
0.000000001
 43
0.0000000001
 40
-0.1044680806805455
 40
-0.1044680806805455
 40
-0.1044680806805455
 40
-0.1044680806805455
 40
-0.0540049185076343
 40
-0.0540049185076343
 40
-0.0150817134650049
 40
-0.0150817134650049
 40
-0.0150817134650049
 40
-0.0150817134650049
 10
1.5940000535059
 20
-8.683640184202346
 30
0.0
 10
1.512587355486002
 20
-8.544575752883297
 30
0.0
 10
1.430920055715614
 20
-8.401584379667477
 30
0.0
 10
1.292745445285199
 20
-8.150156236167262
 30
0.0
 10
1.233121455100242
 20
-8.038348636689798
 30
0.0
 10
1.175499366920781
 20
-7.92535932974448
 30
0.0
  0
SPLINE
  5
1EFD
330
1E7C
100
AcDbEntity
  8
0
100
AcDbSpline
210
0.0
220
0.0
230
1.0
 70
     8
 71
     3
 72
     8
 73
     4
 74
     0
 42
0.000000001
 43
0.0000000001
 40
1.062825975034976
 40
1.062825975034976
 40
1.062825975034976
 40
1.062825975034976
 40
1.111580402427442
 40
1.111580402427442
 40
1.111580402427442
 40
1.111580402427442
 10
0.9261236648038881
 20
-9.597232654704981
 30
0.0
 10
0.9485800041087347
 20
-9.442509713662918
 30
0.0
 10
0.9719171743658954
 20
-9.287424996442561
 30
0.0
 10
0.9955386520234759
 20
-9.132433922259178
 30
0.0
  0
SPLINE
  5
1EFE
330
1E7C
100
AcDbEntity
  8
0
100
AcDbSpline
210
0.0
220
0.0
230
1.0
 70
     8
 71
     3
 72
     8
 73
     4
 74
     0
 42
0.000000001
 43
0.0000000001
 40
2.128980204600876
 40
2.128980204600876
 40
2.128980204600876
 40
2.128980204600876
 40
2.296623994976149
 40
2.296623994976149
 40
2.296623994976149
 40
2.296623994976149
 10
0.9261236648038881
 20
-9.597232654704981
 30
0.0
 10
0.7708882344252059
 20
-10.05679419871464
 30
0.0
 10
0.6232633713785745
 20
-10.51061212029849
 30
0.0
 10
0.4932594790775853
 20
-10.95434848949959
 30
0.0
  0
SPLINE
  5
1EFF
330
1E7C
100
AcDbEntity
  8
0
100
AcDbSpline
210
0.0
220
0.0
230
1.0
 70
     8
 71
     3
 72
    10
 73
     6
 74
     0
 42
0.000000001
 43
0.0000000001
 40
-0.0507675969598552
 40
-0.0507675969598552
 40
-0.0507675969598552
 40
-0.0507675969598552
 40
-0.025232428500031
 40
-0.025232428500031
 40
-0.0002590135614553
 40
-0.0002590135614553
 40
-0.0002590135614553
 40
-0.0002590135614553
 10
0.8043464385855239
 20
-11.33143766408484
 30
0.0
 10
0.7532487730038096
 20
-11.26791927385971
 30
0.0
 10
0.7004416403547965
 20
-11.20271173954161
 30
0.0
 10
0.598363915289465
 20
-11.07848887486114
 30
0.0
 10
0.5449517308001357
 20
-11.01438481013498
 30
0.0
 10
0.4932594790775853
 20
-10.95434848949959
 30
0.0
  0
SPLINE
  5
1F00
330
1E7C
100
AcDbEntity
  8
0
100
AcDbSpline
210
0.0
220
0.0
230
1.0
 70
     8
 71
     3
 72
    10
 73
     6
 74
     0
 42
0.000000001
 43
0.0000000001
 40
2.376625117372109
 40
2.376625117372109
 40
2.376625117372109
 40
2.376625117372109
 40
2.552974478438969
 40
2.552974478438969
 40
2.747747586946196
 40
2.747747586946196
 40
2.747747586946196
 40
2.747747586946196
 10
0.3200960979906434
 20
-11.58244720877382
 30
0.0
 10
0.2030839793813901
 20
-12.03846180706477
 30
0.0
 10
0.1101536511761977
 20
-12.4818175063783
 30
0.0
 10
-0.0136703697184387
 20
-13.38491492705973
 30
0.0
 10
-0.0401622946848433
 20
-13.83926609438872
 30
0.0
 10
-0.0000000000000055
 20
-14.28768642740679
 30
0.0
  0
SPLINE
  5
1F01
330
1E7C
100
AcDbEntity
  8
0
100
AcDbSpline
210
0.0
220
0.0
230
1.0
 70
     8
 71
     3
 72
     8
 73
     4
 74
     0
 42
0.000000001
 43
0.0000000001
 40
1.239161192256578
 40
1.239161192256578
 40
1.239161192256578
 40
1.239161192256578
 40
1.373717851009438
 40
1.373717851009438
 40
1.373717851009438
 40
1.373717851009438
 10
1.175499366920781
 20
-7.92535932974448
 30
0.0
 10
1.233507333573856
 20
-7.500097821037618
 30
0.0
 10
1.292506523771321
 20
-6.991990692035885
 30
0.0
 10
1.29934232088328
 20
-6.539279124889782
 30
0.0
  0
LINE
  5
1F02
330
1E7C
100
AcDbEntity
  8
0
100
AcDbLine
 10
1.298951735122315
 20
-6.563589877597582
 30
0.0
 11
1.484924240491745
 21
-6.580200271806962
 31
0.0
  0
LINE
  5
1F03
330
1E7C
100
AcDbEntity
  8
0
100
AcDbLine
 10
1.484924240491745
 20
-6.580200271806962
 30
0.0
 11
1.289152003456353
 21
-6.823744250249468
 31
0.0
  0
LINE
  5
1F04
330
1E7C
100
AcDbEntity
  8
0
100
AcDbLine
 10
0.2739988405683536
 20
-12.57440325855875
 30
0.0
 11
0.0
 21
-14.28768642740679
 31
0.0
  0
LINE
  5
1F05
330
1E7C
100
AcDbEntity
  8
0
100
AcDbLine
 10
0.6231929597459724
 20
-12.13999986046656
 30
0.0
 11
0.2739988405683535
 21
-12.57440325855875
 31
0.0
  0
LINE
  5
1F06
330
1E7C
100
AcDbEntity
  8
0
100
AcDbLine
 10
0.3474106023231948
 20
-12.11536797373433
 30
0.0
 11
0.623192959745973
 21
-12.13999986046657
 31
0.0
  0
LINE
  5
1F07
330
1E7C
100
AcDbEntity
  8
0
100
AcDbLine
 10
0.5786701279440731
 20
-10.66932881536031
 30
0.0
 11
0.5268120524566841
 21
-10.99359138417896
 31
0.0
  0
LINE
  5
1F08
330
1E7C
100
AcDbEntity
  8
0
100
AcDbLine
 10
0.4407014972776913
 20
-11.53203076054053
 30
0.0
 11
0.3474106023231948
 21
-12.11536797373433
 31
0.0
  0
LINE
  5
1F09
330
1E7C
100
AcDbEntity
  8
0
100
AcDbLine
 10
0.9667139268898534
 20
-9.322731135451094
 30
0.0
 11
1.098410028819918
 21
-9.334493756837261
 31
0.0
  0
LINE
  5
1F0A
330
1E7C
100
AcDbEntity
  8
0
100
AcDbLine
 10
-0.8020661030688764
 20
10.39349824684569
 30
0.0
 11
-0.8020661030688756
 21
9.827207743370621
 31
0.0
  0
ELLIPSE
  5
1F0B
330
1E7C
100
AcDbEntity
  8
0
100
AcDbEllipse
 10
-0.0000000000000011
 20
8.578872337001739
 30
0.0
 11
1.497078414746462
 21
-1.533054327329144
 31
0.0
210
0.0
220
0.0
230
1.0
 40
0.1894808634043142
 41
2.316274845745831
 42
2.779419568910886
  0
ELLIPSE
  5
1F0C
330
1E7C
100
AcDbEntity
  8
0
100
AcDbEllipse
 10
-0.0000000000000011
 20
8.578872337001739
 30
0.0
 11
1.497078414746433
 21
1.533054327329173
 31
0.0
210
0.0
220
0.0
230
1.0
 40
0.1894808634043134
 41
0.3621730846745272
 42
0.8253178078407687
  0
LINE
  5
1F0D
330
1E7C
100
AcDbEntity
  8
0
100
AcDbLine
 10
0.8020661030688751
 20
9.827207743370621
 30
0.0
 11
0.8020661030688756
 21
10.39349824684569
 31
0.0
  0
LINE
  5
1F0E
330
1E7C
100
AcDbEntity
  8
0
100
AcDbLine
 10
2.709955647322595
 20
12.52097613735806
 30
0.0
 11
2.709955647322592
 21
11.98585284821986
 31
0.0
  0
LINE
  5
1F0F
330
1E7C
100
AcDbEntity
  8
0
100
AcDbLine
 10
2.709955647322592
 20
11.98585284821986
 30
0.0
 11
1.297040849899458
 21
10.11298154669532
 31
0.0
  0
SPLINE
  5
1F10
330
1E7C
100
AcDbEntity
  8
0
100
AcDbSpline
210
0.0
220
0.0
230
1.0
 70
    12
 71
     2
 72
     6
 73
     3
 74
     0
 42
0.000000001
 43
0.0000000001
 40
0.0
 40
0.0
 40
0.0
 40
0.3819135332074239
 40
0.3819135332074239
 40
0.3819135332074239
 10
-2.214980900492008
 20
12.23520233403335
 30
0.0
 41
1.0
 10
-1.230861141095142
 20
10.94010173289073
 30
0.0
 41
1.089871223951229
 10
-0.8020661030688764
 20
10.39349824684569
 30
0.0
 41
1.0
  0
LINE
  5
1F11
330
1E7C
100
AcDbEntity
  8
0
100
AcDbLine
 10
-2.214980900492008
 20
12.23520233403335
 30
0.0
 11
-2.214980900492008
 21
11.70007904489515
 31
0.0
  0
LINE
  5
1F12
330
1E7C
100
AcDbEntity
  8
0
100
AcDbLine
 10
-2.214980900492008
 20
11.70007904489515
 30
0.0
 11
-0.8020661030688758
 21
9.827207743370621
 31
0.0
  0
ELLIPSE
  5
1F13
330
1E7C
100
AcDbEntity
  8
0
100
AcDbEllipse
 10
-0.0000000000000011
 20
8.578872337001739
 30
0.0
 11
-3.435917673188533
 21
-3.518485341411216
 31
0.0
210
0.0
220
0.0
230
1.0
 40
0.1894808634043134
 41
3.635170678685568
 42
3.835505521009216
  0
LINE
  5
1F14
330
1E7C
100
AcDbEntity
  8
0
100
AcDbLine
 10
2.21498090049201
 20
11.70007904489515
 30
0.0
 11
0.8020661030688749
 21
9.827207743370621
 31
0.0
  0
SPLINE
  5
1F15
330
1E7C
100
AcDbEntity
  8
0
100
AcDbSpline
210
0.0
220
0.0
230
1.0
 70
    12
 71
     2
 72
     6
 73
     3
 74
     0
 42
0.000000001
 43
0.0000000001
 40
0.0
 40
0.0
 40
0.0
 40
0.3819135332074239
 40
0.3819135332074239
 40
0.3819135332074239
 10
0.8020661030688756
 20
10.39349824684569
 30
0.0
 41
1.0
 10
1.230861141094935
 20
10.94010173289046
 30
0.0
 41
1.089871223951879
 10
2.214980900492009
 20
12.23520233403335
 30
0.0
 41
1.0
  0
LINE
  5
1F16
330
1E7C
100
AcDbEntity
  8
0
100
AcDbLine
 10
2.21498090049201
 20
11.70007904489515
 30
0.0
 11
2.214980900492009
 21
12.23520233403335
 31
0.0
  0
LINE
  5
1F17
330
1E7C
100
AcDbEntity
  8
0
100
AcDbLine
 10
-2.709955647322592
 20
11.98585284821986
 30
0.0
 11
-1.297040849899459
 21
10.11298154669532
 31
0.0
  0
LINE
  5
1F18
330
1E7C
100
AcDbEntity
  8
0
100
AcDbLine
 10
-2.709955647322592
 20
11.98585284821986
 30
0.0
 11
-2.709955647322591
 21
12.52097613735806
 31
0.0
  0
ELLIPSE
  5
1F19
330
1E7C
100
AcDbEntity
  8
0
100
AcDbEllipse
 10
-0.0000000000000011
 20
8.578872337001739
 30
0.0
 11
3.435917673188602
 21
-3.518485341411149
 31
0.0
210
0.0
220
0.0
230
0.9999999999999998
 40
0.1894808634043141
 41
2.4476797861668
 42
2.64801462848992
  0
SPLINE
  5
1F1A
330
1E7C
100
AcDbEntity
  8
0
100
AcDbSpline
210
0.0
220
0.0
230
1.0
 70
     8
 71
     3
 72
     8
 73
     4
 74
     0
 42
0.000000001
 43
0.0000000001
 40
0.0
 40
0.0
 40
0.0
 40
0.0
 40
0.0748440486664859
 40
0.0748440486664859
 40
0.0748440486664859
 40
0.0748440486664859
 10
1.484924240491745
 20
-6.580200271806962
 30
0.0
 10
1.447878326451276
 20
-6.54876166099979
 30
0.0
 10
1.409380020203371
 20
-6.518231299141856
 30
0.0
 10
1.369567871429297
 20
-6.488627736214189
 30
0.0
  0
SPLINE
  5
1F1B
330
1E7C
100
AcDbEntity
  8
0
100
AcDbSpline
210
0.0
220
0.0
230
1.0
 70
     8
 71
     3
 72
    20
 73
    16
 74
     0
 42
0.000000001
 43
0.0000000001
 40
1.45292760803328
 40
1.45292760803328
 40
1.45292760803328
 40
1.45292760803328
 40
2.262767929533186
 40
2.262767929533186
 40
2.262767929533186
 40
3.400491854568898
 40
3.400491854568898
 40
3.400491854568898
 40
4.533878536654526
 40
4.533878536654526
 40
4.533878536654526
 40
5.663271384777975
 40
5.663271384777975
 40
5.663271384777975
 40
6.358029355845755
 40
6.358029355845755
 40
6.358029355845755
 40
6.358029355845755
 10
-1.295163592015722
 20
-5.902452314839081
 30
0.0
 10
-1.735631144665777
 20
-5.998425288069737
 30
0.0
 10
-2.03795631259316
 20
-6.195752249771581
 30
0.0
 10
-2.090841716083579
 20
-6.412871703400206
 30
0.0
 10
-2.165139064880412
 20
-6.717897262669046
 30
0.0
 10
-1.743820723209072
 20
-7.03761171979557
 30
0.0
 10
-1.05527001126021
 20
-7.115893602431874
 30
0.0
 10
-0.3693441994786549
 20
-7.193877058063076
 30
0.0
 10
0.5459627309870553
 20
-7.020432355572266
 30
0.0
 10
1.197658802204387
 20
-6.607006147832256
 30
0.0
 10
1.84705842337216
 20
-6.19503677354144
 30
0.0
 10
2.201542673841707
 20
-5.558245271267394
 30
0.0
 10
2.07131127416815
 20
-4.956385998968675
 30
0.0
 10
1.9911980494768
 20
-4.586145893778212
 30
0.0
 10
1.730247547177499
 20
-4.237768991022818
 30
0.0
 10
1.364140481886897
 20
-3.960242682668257
 30
0.0
  0
SPLINE
  5
1F1C
330
1E7C
100
AcDbEntity
  8
0
100
AcDbSpline
210
0.0
220
0.0
230
1.0
 70
     8
 71
     3
 72
    23
 73
    19
 74
     0
 42
0.000000001
 43
0.0000000001
 40
7.736112915212866
 40
7.736112915212866
 40
7.736112915212866
 40
7.736112915212866
 40
7.911390723470987
 40
7.911390723470987
 40
7.911390723470987
 40
9.030749176931507
 40
9.030749176931507
 40
9.030749176931507
 40
10.14737992243203
 40
10.14737992243203
 40
10.14737992243203
 40
11.31376669594795
 40
11.31376669594795
 40
11.31376669594795
 40
12.44808332616981
 40
12.44808332616981
 40
12.44808332616981
 40
12.64121466302532
 40
12.64121466302532
 40
12.64121466302532
 40
12.64121466302532
 10
-1.299171605255119
 20
-3.370163262936058
 30
0.0
 10
-1.395954796846748
 20
-3.389780312626708
 30
0.0
 10
-1.486042040877842
 20
-3.414407738273645
 30
0.0
 10
-1.567679232668393
 20
-3.443752554939418
 30
0.0
 10
-2.089030347539476
 20
-3.631154308341699
 30
0.0
 10
-2.240103007702007
 20
-3.994164762001468
 30
0.0
 10
-1.941213898219669
 20
-4.262033590179736
 30
0.0
 10
-1.643053136480248
 20
-4.529249662368535
 30
0.0
 10
-0.91188625097097
 20
-4.681385316053521
 30
0.0
 10
-0.1317853708546024
 20
-4.55976300147515
 30
0.0
 10
0.6830760793090419
 20
-4.432721309617546
 30
0.0
 10
1.507210671242771
 20
-4.003413471218131
 30
0.0
 10
1.874943590493527
 20
-3.42591884262227
 30
0.0
 10
2.232565586264957
 20
-2.864302596661696
 30
0.0
 10
2.141062394671195
 20
-2.185201947631729
 30
0.0
 10
1.649786246013316
 20
-1.672737400752271
 30
0.0
 10
1.566140448334264
 20
-1.585484018060949
 30
0.0
 10
1.471648750944166
 20
-1.503592521317811
 30
0.0
 10
1.368613215695576
 20
-1.427533711920498
 30
0.0
  0
SPLINE
  5
1F1D
330
1E7C
100
AcDbEntity
  8
0
100
AcDbSpline
210
0.0
220
0.0
230
1.0
 70
     8
 71
     3
 72
    20
 73
    16
 74
     0
 42
0.000000001
 43
0.0000000001
 40
14.01929822239245
 40
14.01929822239245
 40
14.01929822239245
 40
14.01929822239245
 40
14.69456679452353
 40
14.69456679452353
 40
14.69456679452353
 40
15.80925683200909
 40
15.80925683200909
 40
15.80925683200909
 40
16.93775310282961
 40
16.93775310282961
 40
16.93775310282961
 40
18.05373612313608
 40
18.05373612313608
 40
18.05373612313608
 40
18.96742464030037
 40
18.96742464030037
 40
18.96742464030037
 40
18.96742464030037
 10
-1.294679634212521
 20
-0.8409845531642034
 30
0.0
 10
-1.663810581275247
 20
-0.9202318995467685
 30
0.0
 10
-1.938812881390537
 20
-1.068700592480902
 30
0.0
 10
-2.045653647237632
 20
-1.243868712199096
 30
0.0
 10
-2.222019529202546
 20
-1.53302500644026
 30
0.0
 10
-1.931864442021895
 20
-1.87346466673339
 30
0.0
 10
-1.327156619587543
 20
-2.008487399536926
 30
0.0
 10
-0.7149590582883504
 20
-2.145182485453815
 30
0.0
 10
0.1895866429890427
 20
-2.056542015661351
 30
0.0
 10
0.9028083054460147
 20
-1.708935083999987
 30
0.0
 10
1.608121460302966
 20
-1.365182567039651
 30
0.0
 10
2.091744850005578
 20
-0.7781796434898181
 30
0.0
 10
2.099885960032173
 20
-0.1773295227970295
 30
0.0
 10
2.106551329139874
 20
0.3146043559666611
 30
0.0
 10
1.794102928919047
 20
0.8010380727536347
 30
0.0
 10
1.297552149224855
 20
1.154560067946333
 30
0.0
  0
SPLINE
  5
1F1E
330
1E7C
100
AcDbEntity
  8
0
100
AcDbSpline
210
0.0
220
0.0
230
1.0
 70
     8
 71
     3
 72
    17
 73
    13
 74
     0
 42
0.000000001
 43
0.0000000001
 40
2.356194490192344
 40
2.356194490192344
 40
2.356194490192344
 40
2.356194490192344
 40
2.580614154952243
 40
2.580614154952243
 40
2.580614154952243
 40
3.86185354548856
 40
3.86185354548856
 40
3.86185354548856
 40
5.137730337773736
 40
5.137730337773736
 40
5.137730337773736
 40
5.497787143782137
 40
5.497787143782137
 40
5.497787143782137
 40
5.497787143782137
 10
-1.297176270855646
 20
-6.111787768472785
 30
0.0
 10
-1.29864881100501
 20
-6.137475728910938
 30
0.0
 10
-1.289042191190072
 20
-6.163240695910959
 30
0.0
 10
-1.267400445214743
 20
-6.187843871702984
 30
0.0
 10
-1.143845063144113
 20
-6.328306419807924
 30
0.0
 10
-0.6386449110648247
 20
-6.404821174704384
 30
0.0
 10
-0.0846185857882283
 20
-6.25363971673922
 30
0.0
 10
0.467088874938184
 20
-6.103091025318761
 30
0.0
 10
1.0218451027036
 20
-5.725201867430291
 30
0.0
 10
1.21663985413731
 20
-5.255138791287183
 30
0.0
 10
1.271611600980359
 20
-5.122485379263414
 30
0.0
 10
1.296674717482313
 20
-4.984428954082822
 30
0.0
 10
1.294470331507953
 20
-4.846364813045038
 30
0.0
  0
SPLINE
  5
1F1F
330
1E7C
100
AcDbEntity
  8
0
100
AcDbSpline
210
0.0
220
0.0
230
1.0
 70
     8
 71
     3
 72
    17
 73
    13
 74
     0
 42
0.000000001
 43
0.0000000001
 40
8.63937979737193
 40
8.63937979737193
 40
8.63937979737193
 40
8.63937979737193
 40
8.93794788711277
 40
8.93794788711277
 40
8.93794788711277
 40
10.2555136650436
 40
10.2555136650436
 40
10.2555136650436
 40
11.54387157681824
 40
11.54387157681824
 40
11.54387157681824
 40
11.78097245096172
 40
11.78097245096172
 40
11.78097245096172
 40
11.78097245096172
 10
-1.295789859677809
 20
-3.580742911863328
 30
0.0
 10
-1.297708165369373
 20
-3.614994433595377
 30
0.0
 10
-1.280543501998314
 20
-3.649282010152405
 30
0.0
 10
-1.24248626840218
 20
-3.680582538578063
 30
0.0
 10
-1.074541634290375
 20
-3.818710176801536
 30
0.0
 10
-0.5114398703152836
 20
-3.870680653080471
 30
0.0
 10
0.0589186138357905
 20
-3.678816713578885
 30
0.0
 10
0.6166333616776992
 20
-3.491206023789021
 30
0.0
 10
1.132496015509571
 20
-3.072633191897895
 30
0.0
 10
1.263629928217508
 20
-2.586320842298055
 30
0.0
 10
1.287762946727932
 20
-2.496823131962215
 30
0.0
 10
1.298513990965606
 20
-2.405922832975821
 30
0.0
 10
1.296965946668455
 20
-2.315093154947636
 30
0.0
  0
SPLINE
  5
1F20
330
1E7C
100
AcDbEntity
  8
0
100
AcDbSpline
210
0.0
220
0.0
230
1.0
 70
     8
 71
     3
 72
    17
 73
    13
 74
     0
 42
0.000000001
 43
0.0000000001
 40
14.92256510455152
 40
14.92256510455152
 40
14.92256510455152
 40
14.92256510455152
 40
15.34791881266421
 40
15.34791881266421
 40
15.34791881266421
 40
16.6275370136005
 40
16.6275370136005
 40
16.6275370136005
 40
17.88900619669747
 40
17.88900619669747
 40
17.88900619669747
 40
18.06415775814131
 40
18.06415775814131
 40
18.06415775814131
 40
18.06415775814131
 10
-1.293447721215968
 20
-1.049565329815376
 30
0.0
 10
-1.295563373129114
 20
-1.098553282953098
 30
0.0
 10
-1.260219017849395
 20
-1.147484821602995
 30
0.0
 10
-1.184160685190304
 20
-1.187302486071459
 30
0.0
 10
-0.9553496393544124
 20
-1.307088459958212
 30
0.0
 10
-0.375611984090654
 20
-1.320569671204026
 30
0.0
 10
0.1739053533358153
 20
-1.105914720421705
 30
0.0
 10
0.7156288035288365
 20
-0.8943042531643863
 30
0.0
 10
1.184854710437292
 20
-0.4648843950831694
 30
0.0
 10
1.280110181368592
 20
0.0152792606176799
 30
0.0
 10
1.29333614415329
 20
0.0819486768598665
 30
0.0
 10
1.29920436024193
 20
0.1491260125626459
 30
0.0
 10
1.298208845585845
 20
0.2162320500783865
 30
0.0
  0
SPLINE
  5
1F21
330
1E7C
100
AcDbEntity
  8
0
100
AcDbSpline
210
0.0
220
0.0
230
1.0
 70
     8
 71
     3
 72
    17
 73
    13
 74
     0
 42
0.000000001
 43
0.0000000001
 40
0.8999854637440847
 40
0.8999854637440847
 40
0.8999854637440847
 40
0.8999854637440847
 40
1.140855774200599
 40
1.140855774200599
 40
1.140855774200599
 40
2.289013738354336
 40
2.289013738354336
 40
2.289013738354336
 40
3.482874115900787
 40
3.482874115900787
 40
3.482874115900787
 40
4.013272090678361
 40
4.013272090678361
 40
4.013272090678361
 40
4.013272090678361
 10
-1.296919004356132
 20
1.586505264421238
 30
0.0
 10
-1.401063115392035
 20
1.552565648651922
 30
0.0
 10
-1.489854788143601
 20
1.512191938829401
 30
0.0
 10
-1.559724972324025
 20
1.467120916776076
 30
0.0
 10
-1.892775601401557
 20
1.252280603642443
 30
0.0
 10
-1.790775029269269
 20
0.9556249860672782
 30
0.0
 10
-1.391123652980263
 20
0.8258756013776835
 30
0.0
 10
-0.9755641586601385
 20
0.6909615440544759
 30
0.0
 10
-0.2770081622323961
 20
0.7498455884828692
 30
0.0
 10
0.2583046394721423
 20
1.014526087019076
 30
0.0
 10
0.4961287864466062
 20
1.132116052334146
 30
0.0
 10
0.7020896985755831
 20
1.285727947454078
 30
0.0
 10
0.8524984215796258
 20
1.45933088236136
 30
0.0
  0
SPLINE
  5
1F22
330
1E7C
100
AcDbEntity
  8
0
100
AcDbSpline
210
0.0
220
0.0
230
1.0
 70
     8
 71
     3
 72
    18
 73
    14
 74
     0
 42
0.000000001
 43
0.0000000001
 40
0.2346409413246127
 40
0.2346409413246127
 40
0.2346409413246127
 40
0.2346409413246127
 40
0.2754930469786151
 40
0.2754930469786151
 40
0.3305916563743381
 40
0.3305916563743381
 40
0.3856902657700612
 40
0.3856902657700612
 40
0.4407888751657842
 40
0.4407888751657842
 40
0.4929868649324292
 40
0.4929868649324292
 40
0.5451848546990743
 40
0.5451848546990743
 40
0.5451848546990743
 40
0.5451848546990743
 10
-1.299999679908307
 20
1.319887215298698
 30
0.0
 10
-1.299999094674179
 20
1.275638259416531
 30
0.0
 10
-1.280426773469476
 20
1.231547518475484
 30
0.0
 10
-1.189503659674059
 20
1.135158889619858
 30
0.0
 10
-1.103559937479406
 20
1.086524045983046
 30
0.0
 10
-0.874693361157939
 20
1.015388676631914
 30
0.0
 10
-0.734145621526398
 20
0.9936406086958914
 30
0.0
 10
-0.4179681379738457
 20
0.9872073577677809
 30
0.0
 10
-0.2456195971727256
 20
1.002603171732525
 30
0.0
 10
0.0973000953566258
 20
1.073592651370025
 30
0.0
 10
0.2642936866715476
 20
1.126378192468155
 30
0.0
 10
0.5803006472063912
 20
1.268430597163223
 30
0.0
 10
0.7263715667830044
 20
1.356385633866354
 30
0.0
 10
0.8524984215796248
 20
1.45933088236136
 30
0.0
  0
SPLINE
  5
1F23
330
1E7C
100
AcDbEntity
  8
0
100
AcDbSpline
210
0.0
220
0.0
230
1.0
 70
     8
 71
     3
 72
    10
 73
     6
 74
     0
 42
0.000000001
 43
0.0000000001
 40
0.1727014102895194
 40
0.1727014102895194
 40
0.1727014102895194
 40
0.1727014102895194
 40
0.1858546295285329
 40
0.1858546295285329
 40
0.2336466010843285
 40
0.2336466010843285
 40
0.2336466010843285
 40
0.2336466010843285
 10
-0.6040520575545854
 20
0.7659600719347726
 30
0.0
 10
-0.6390794684267087
 20
0.7614544634456211
 30
0.0
 10
-0.673316547509828
 20
0.7578654110011529
 30
0.0
 10
-0.8277537457556585
 20
0.7452930447739404
 30
0.0
 10
-0.9347122379478417
 20
0.7471542818529309
 30
0.0
 10
-1.023335556869034
 20
0.7575452455917287
 30
0.0
  0
SPLINE
  5
1F24
330
1E7C
100
AcDbEntity
  8
0
100
AcDbSpline
210
0.0
220
0.0
230
1.0
 70
     8
 71
     3
 72
    12
 73
     8
 74
     0
 42
0.000000001
 43
0.0000000001
 40
0.1208536808685666
 40
0.1208536808685666
 40
0.1208536808685666
 40
0.1208536808685666
 40
0.124598926762099
 40
0.124598926762099
 40
0.1639741273576327
 40
0.1639741273576327
 40
0.1938771651741398
 40
0.1938771651741398
 40
0.1938771651741398
 40
0.1938771651741398
 10
-0.3834626666041102
 20
-11.75275998581116
 30
0.0
 10
-0.391374171005549
 20
-11.75455550862542
 30
0.0
 10
-0.3991424455885062
 20
-11.75626784829365
 30
0.0
 10
-0.4868604020160195
 20
-11.77506377664023
 30
0.0
 10
-0.5481491956772424
 20
-11.78293937942753
 30
0.0
 10
-0.6141091707815321
 20
-11.7912033933966
 30
0.0
 10
-0.6281817875718153
 20
-11.79287280223665
 30
0.0
 10
-0.6274012915446513
 20
-11.79598075226817
 30
0.0
  0
SPLINE
  5
1F25
330
1E7C
100
AcDbEntity
  8
0
100
AcDbSpline
210
0.0
220
0.0
230
1.0
 70
     8
 71
     3
 72
    14
 73
    10
 74
     0
 42
0.000000001
 43
0.0000000001
 40
0.1219096538423456
 40
0.1219096538423456
 40
0.1219096538423456
 40
0.1219096538423456
 40
1.39954612090666
 40
1.39954612090666
 40
1.39954612090666
 40
2.680930343374174
 40
2.680930343374174
 40
2.680930343374174
 40
2.748714261154533
 40
2.748714261154533
 40
2.748714261154533
 40
2.748714261154533
 10
0.804346438585526
 20
-11.33143766408484
 30
0.0
 10
0.2892539652763437
 20
-11.67786299013398
 30
0.0
 10
-0.3829182211583638
 20
-11.79549818281493
 30
0.0
 10
-0.7729398656384224
 20
-11.75496666013842
 30
0.0
 10
-1.164105580253566
 20
-11.71431624430487
 30
0.0
 10
-1.248481906514799
 20
-11.53912891966112
 30
0.0
 10
-1.029861546298405
 20
-11.46752720943984
 30
0.0
 10
-1.018296752334043
 20
-11.46373955203508
 30
0.0
 10
-1.005975386971563
 20
-11.46029486891997
 30
0.0
 10
-0.9929499358950572
 20
-11.45719981832094
 30
0.0
  0
SPLINE
  5
1F26
330
1E7C
100
AcDbEntity
  8
0
100
AcDbSpline
210
0.0
220
0.0
230
1.0
 70
     8
 71
     3
 72
     8
 73
     4
 74
     0
 42
0.000000001
 43
0.0000000001
 40
4.308450854823731
 40
4.308450854823731
 40
4.308450854823731
 40
4.308450854823731
 40
4.66171813113324
 40
4.66171813113324
 40
4.66171813113324
 40
4.66171813113324
 10
0.3856020640288862
 20
-11.87449021290246
 30
0.0
 10
0.4784723730699602
 20
-11.95521630787382
 30
0.0
 10
0.5592928702584349
 20
-12.04471827955617
 30
0.0
 10
0.6231929597459712
 20
-12.13999986046656
 30
0.0
  0
SPLINE
  5
1F27
330
1E7C
100
AcDbEntity
  8
0
100
AcDbSpline
210
0.0
220
0.0
230
1.0
 70
     8
 71
     3
 72
    18
 73
    14
 74
     0
 42
0.000000001
 43
0.0000000001
 40
0.2958652615810475
 40
0.2958652615810475
 40
0.2958652615810475
 40
0.2958652615810475
 40
0.3146384564017661
 40
0.3146384564017661
 40
0.3573075434508681
 40
0.3573075434508681
 40
0.4010760595425451
 40
0.4010760595425451
 40
0.4459915586278264
 40
0.4459915586278264
 40
0.4777634970719817
 40
0.4777634970719817
 40
0.4902538628414006
 40
0.4902538628414006
 40
0.4902538628414006
 40
0.4902538628414006
 10
-0.7381144847796267
 20
-11.35628009639972
 30
0.0
 10
-0.7376603864037543
 20
-11.35808565980678
 30
0.0
 10
-0.7317015259458315
 20
-11.36027351898586
 30
0.0
 10
-0.6941665562199822
 20
-11.36641923999818
 30
0.0
 10
-0.6404300996637734
 20
-11.36893026533021
 30
0.0
 10
-0.4844649007035619
 20
-11.35657170829813
 30
0.0
 10
-0.3832683407827258
 20
-11.34140886018579
 30
0.0
 10
-0.1492322384499006
 20
-11.28228910447746
 30
0.0
 10
-0.0188711692096463
 20
-11.23839016968041
 30
0.0
 10
0.2072037188936554
 20
-11.13504034837064
 30
0.0
 10
0.3004550589235909
 20
-11.08456784981447
 30
0.0
 10
0.4252229065289076
 20
-11.00340898875889
 30
0.0
 10
0.4596945305355898
 20
-10.97941341786786
 30
0.0
 10
0.4932594790777778
 20
-10.95434848949949
 30
0.0
  0
SPLINE
  5
1F28
330
1E7C
100
AcDbEntity
  8
0
100
AcDbSpline
210
0.0
220
0.0
230
1.0
 70
     8
 71
     3
 72
     8
 73
     4
 74
     0
 42
0.000000001
 43
0.0000000001
 40
0.000914021153363
 40
0.000914021153363
 40
0.000914021153363
 40
0.000914021153363
 40
0.0293782063434824
 40
0.0293782063434824
 40
0.0293782063434824
 40
0.0293782063434824
 10
-0.6270730821872848
 20
-11.79728935164958
 30
0.0
 10
-0.6687545649172824
 20
-11.7787283910246
 30
0.0
 10
-0.7027657451675508
 20
-11.76661206397121
 30
0.0
 10
-0.7267219687726781
 20
-11.75904813730099
 30
0.0
  0
SPLINE
  5
1F29
330
1E7C
100
AcDbEntity
  8
0
100
AcDbSpline
210
0.0
220
0.0
230
1.0
 70
     8
 71
     3
 72
    10
 73
     6
 74
     0
 42
0.000000001
 43
0.0000000001
 40
0.0
 40
0.0
 40
0.0
 40
0.0
 40
0.0488122554050805
 40
0.0488122554050805
 40
0.0776633884751091
 40
0.0776633884751091
 40
0.0776633884751091
 40
0.0776633884751091
 10
-0.9930314401121604
 20
-11.45701036160383
 30
0.0
 10
-0.9747492018237021
 20
-11.45248076558892
 30
0.0
 10
-0.9308999039099997
 20
-11.4403614933195
 30
0.0
 10
-0.8313240468612471
 20
-11.40042781448475
 30
0.0
 10
-0.7873672864858384
 20
-11.38089130136008
 30
0.0
 10
-0.7383239028335569
 20
-11.35546091684143
 30
0.0
  0
ENDBLK
  5
1E7E
330
1E7C
100
AcDbEntity
  8
0
100
AcDbBlockEnd
  0
ENDSEC
  0
SECTION
  2
ENTITIES
  0
INSERT
  5
1F2A
330
1F
100
AcDbEntity
  8
0
100
AcDbBlockReference
  2
DSIX442X35T-20-Front
 10
0.0
 20
0.0
 30
0.0
  0
INSERT
  5
1F2B
330
1F
100
AcDbEntity
  8
0
100
AcDbBlockReference
  2
DSIX442X35T-20-Top
 10
0.0
 20
-45.75981062746341
 30
0.0
  0
INSERT
  5
1F2C
330
1F
100
AcDbEntity
  8
0
100
AcDbBlockReference
  2
DSIX442X35T-20-ISO
 10
14.25981062746341
 20
-58.57023047469073
 30
0.0
  0
MTEXT
  5
1F2D
330
1F
100
AcDbEntity
  8
0
100
AcDbMText
 10
0.0
 20
-56.51962125492682
 30
0.0
 40
0.978164602496674
 41
0.0
 71
     5
 72
     5
  1
DSIX44.2X35T-20
 73
     1
 44
1.0
1001
ACAD
1000
MTEXTBEGIN
1070
    73
1070
     1
1070
    44
1040
1.0
1070
    74
1070
     0
1000
MTEXTEND
  0
ENDSEC
  0
SECTION
  2
OBJECTS
  0
DICTIONARY
  5
C
330
0
100
AcDbDictionary
281
     1
  3
ACAD_CIP_PREVIOUS_PRODUCT_INFO
350
216
  3
ACAD_COLOR
350
6B
  3
ACAD_DETAILVIEWSTYLE
350
21B
  3
ACAD_GROUP
350
D
  3
ACAD_LAYOUT
350
1A
  3
ACAD_MATERIAL
350
6A
  3
ACAD_MLEADERSTYLE
350
12D
  3
ACAD_MLINESTYLE
350
17
  3
ACAD_PLOTSETTINGS
350
19
  3
ACAD_PLOTSTYLENAME
350
E
  3
ACAD_SCALELIST
350
10C
  3
ACAD_SECTIONVIEWSTYLE
350
219
  3
ACAD_TABLESTYLE
350
7E
  3
ACAD_VISUALSTYLE
350
EF
  3
ACDB_RECOMPOSE_DATA
350
202E
  3
AcDbVariableDictionary
350
5E
  3
DWGPROPS
350
202F
  0
DICTIONARY
  5
1F7E
330
8
100
AcDbDictionary
280
     1
281
     1
  0
DICTIONARY
  5
1FF
330
2
100
AcDbDictionary
280
     1
281
     1
  3
ACAD_LAYERSTATES
360
200
  0
DICTIONARY
  5
13C
330
10
100
AcDbDictionary
280
     1
281
     1
  0
DICTIONARY
  5
1CE
330
1F
100
AcDbDictionary
280
     1
281
     1
  3
ACAD_LAYOUTSELFREF
360
1F86
  0
DICTIONARY
  5
1F31
330
D2
100
AcDbDictionary
280
     1
281
     1
  3
ACAD_LAYOUTSELFREF
360
1F8F
  0
DICTIONARY
  5
1F33
330
D6
100
AcDbDictionary
280
     1
281
     1
  3
ACAD_LAYOUTSELFREF
360
1F92
  0
XRECORD
  5
216
102
{ACAD_REACTORS
330
C
102
}
330
C
100
AcDbXrecord
280
     1
300
ACD
300
2021
300
87393ACD_2021_0F
  0
DICTIONARY
  5
6B
102
{ACAD_REACTORS
330
C
102
}
330
C
100
AcDbDictionary
281
     1
  0
DICTIONARY
  5
21B
102
{ACAD_REACTORS
330
C
102
}
330
C
100
AcDbDictionary
281
     1
  3
Metric50
350
21C
  0
DICTIONARY
  5
D
102
{ACAD_REACTORS
330
C
102
}
330
C
100
AcDbDictionary
281
     1
  0
DICTIONARY
  5
1A
102
{ACAD_REACTORS
330
C
102
}
330
C
100
AcDbDictionary
281
     1
  3
Layout1
350
D3
  3
Layout2
350
D7
  3
Model
350
22
  0
DICTIONARY
  5
6A
102
{ACAD_REACTORS
330
C
102
}
330
C
100
AcDbDictionary
281
     1
  3
ByBlock
350
ED
  3
ByLayer
350
EC
  3
Global
350
EE
  0
DICTIONARY
  5
12D
102
{ACAD_REACTORS
330
C
102
}
330
C
100
AcDbDictionary
281
     1
  3
Standard
350
12E
  0
DICTIONARY
  5
17
102
{ACAD_REACTORS
330
C
102
}
330
C
100
AcDbDictionary
281
     1
  3
Standard
350
18
  0
DICTIONARY
  5
19
102
{ACAD_REACTORS
330
C
102
}
330
C
100
AcDbDictionary
281
     1
  0
ACDBDICTIONARYWDFLT
  5
E
102
{ACAD_REACTORS
330
C
102
}
330
C
100
AcDbDictionary
281
     1
  3
Normal
350
F
100
AcDbDictionaryWithDefault
340
F
  0
DICTIONARY
  5
10C
102
{ACAD_REACTORS
330
C
102
}
330
C
100
AcDbDictionary
281
     1
  3
A0
350
10D
  3
A1
350
1BE
  3
A2
350
1BF
  3
A3
350
1C0
  3
A4
350
1C1
  3
A5
350
1C2
  3
A6
350
1C3
  3
A7
350
1C4
  3
A8
350
1C5
  3
A9
350
1C6
  3
B0
350
1C7
  3
B1
350
1C8
  3
B2
350
1C9
  3
B3
350
1CA
  3
B4
350
1CB
  3
B5
350
1CC
  3
B6
350
1CD
  0
DICTIONARY
  5
219
102
{ACAD_REACTORS
330
C
102
}
330
C
100
AcDbDictionary
281
     1
  3
Metric50
350
21A
  0
DICTIONARY
  5
7E
102
{ACAD_REACTORS
330
C
102
}
330
C
100
AcDbDictionary
281
     1
  3
Standard
350
7F
  0
DICTIONARY
  5
EF
102
{ACAD_REACTORS
330
C
102
}
330
C
100
AcDbDictionary
281
     1
  3
2dWireframe
350
F5
  3
Basic
350
F4
  3
Brighten
350
FB
  3
ColorChange
350
FF
  3
Conceptual
350
F8
  3
Dim
350
FA
  3
EdgeColorOff
350
1E6
  3
Facepattern
350
FE
  3
Flat
350
F0
  3
FlatWithEdges
350
F1
  3
Gouraud
350
F2
  3
GouraudWithEdges
350
F3
  3
Hidden
350
F7
  3
JitterOff
350
1E4
  3
Linepattern
350
FD
  3
OverhangOff
350
1E5
  3
Realistic
350
F9
  3
Shaded
350
1F3
  3
Shaded with edges
350
1F2
  3
Shades of Gray
350
1EF
  3
Sketchy
350
1F0
  3
Thicken
350
FC
  3
Wireframe
350
F6
  3
X-Ray
350
1F1
  0
XRECORD
  5
202E
102
{ACAD_REACTORS
330
C
102
}
330
C
100
AcDbXrecord
280
     1
 90
        1
330
7F
  0
DICTIONARY
  5
5E
102
{ACAD_REACTORS
330
C
102
}
330
C
100
AcDbDictionary
281
     1
  3
CANNOSCALE
350
146
  3
CENTEREXE
350
259
  3
CENTERLTYPEFILE
350
25A
  3
CMLEADERSTYLE
350
145
  3
CTABLESTYLE
350
84
  3
CVIEWDETAILSTYLE
350
227
  3
CVIEWSECTIONSTYLE
350
228
  3
DIMASSOC
350
5F
  3
HIDETEXT
350
63
  3
INDEXCTL
350
1FDB
  3
LAYEREVAL
350
1AE
  3
LAYERNOTIFY
350
1AF
  3
LIGHTINGUNITS
350
1FD9
  3
MSLTSCALE
350
1FD8
  3
PSOLHEIGHT
350
202B
  3
PSOLWIDTH
350
202A
  3
SORTENTS
350
1FDA
  3
XCLIPFRAME
350
202C
  0
XRECORD
  5
202F
102
{ACAD_REACTORS
330
C
102
}
330
C
100
AcDbXrecord
280
     1
  1
DWGPROPS COOKIE
  2

  3

  4

  6

  7

  8
KhuNguyen
  9

300
=
301
=
302
=
303
=
304
=
305
=
306
=
307
=
308
=
309
=
 40
0.0017708333333333
 41
2460476.646099537
 42
2460476.691932871
  1

 90
        0
  0
DICTIONARY
  5
200
102
{ACAD_REACTORS
330
1FF
102
}
330
1FF
100
AcDbDictionary
281
     1
  0
XRECORD
  5
1F86
102
{ACAD_REACTORS
330
1CE
102
}
330
1CE
100
AcDbXrecord
280
     1
340
1F
  0
XRECORD
  5
1F8F
102
{ACAD_REACTORS
330
1F31
102
}
330
1F31
100
AcDbXrecord
280
     1
340
D2
  0
XRECORD
  5
1F92
102
{ACAD_REACTORS
330
1F33
102
}
330
1F33
100
AcDbXrecord
280
     1
340
D6
  0
ACDBDETAILVIEWSTYLE
  5
21C
102
{ACAD_XDICTIONARY
360
206E
102
}
102
{ACAD_REACTORS
330
21B
102
}
330
21B
100
AcDbModelDocViewStyle
 70
     0
  3
Metric50
290
     0
100
AcDbDetailViewStyle
 70
     0
 71
     0
 90
        3
 71
     1
340
11
 40
5.0
340
0
 40
5.0
300

 40
0.0
280
     1
 71
     2
340
16
 90
       25
 71
     3
340
11
 40
5.0
 90
        0
 40
15.0
 90
        1
300
%<\AcVar ViewDetailId>% (%<\AcVar ViewScale \f "%sn">%)
 71
     4
340
16
 90
       25
340
16
 90
       25
280
     0
  0
LAYOUT
  5
D3
102
{ACAD_XDICTIONARY
360
2033
102
}
102
{ACAD_REACTORS
330
1A
102
}
330
1A
100
AcDbPlotSettings
  1

  2
C:\Documents and Settings\basas\Application Data\Autodesk\AutoCAD 2005\R16.1\enu\plotters\Default Windows System Printer.pc3
  4

  6

 40
0.0
 41
0.0
 42
0.0
 43
0.0
 44
0.0
 45
0.0
 46
0.0
 47
0.0
 48
0.0
 49
0.0
140
0.0
141
0.0
142
1.0
143
1.0
 70
   688
 72
     0
 73
     0
 74
     5
  7

 75
    16
147
1.0
148
0.0
149
0.0
100
AcDbLayout
  1
Layout1
 70
     1
 71
     1
 10
0.0
 20
0.0
 11
12.0
 21
9.0
 12
0.0
 22
0.0
 32
0.0
 14
0.0
 24
0.0
 34
0.0
 15
0.0
 25
0.0
 35
0.0
146
0.0
 13
0.0
 23
0.0
 33
0.0
 16
1.0
 26
0.0
 36
0.0
 17
0.0
 27
1.0
 37
0.0
 76
     0
330
D2
  0
LAYOUT
  5
D7
102
{ACAD_XDICTIONARY
360
2035
102
}
102
{ACAD_REACTORS
330
1A
102
}
330
1A
100
AcDbPlotSettings
  1

  2
C:\Documents and Settings\basas\Application Data\Autodesk\AutoCAD 2005\R16.1\enu\plotters\Default Windows System Printer.pc3
  4

  6

 40
0.0
 41
0.0
 42
0.0
 43
0.0
 44
0.0
 45
0.0
 46
0.0
 47
0.0
 48
0.0
 49
0.0
140
0.0
141
0.0
142
1.0
143
1.0
 70
   688
 72
     0
 73
     0
 74
     5
  7

 75
    16
147
1.0
148
0.0
149
0.0
100
AcDbLayout
  1
Layout2
 70
     1
 71
     2
 10
0.0
 20
0.0
 11
12.0
 21
9.0
 12
0.0
 22
0.0
 32
0.0
 14
0.0
 24
0.0
 34
0.0
 15
0.0
 25
0.0
 35
0.0
146
0.0
 13
0.0
 23
0.0
 33
0.0
 16
1.0
 26
0.0
 36
0.0
 17
0.0
 27
1.0
 37
0.0
 76
     0
330
D6
  0
LAYOUT
  5
22
102
{ACAD_XDICTIONARY
360
2030
102
}
102
{ACAD_REACTORS
330
1A
102
}
330
1A
100
AcDbPlotSettings
  1

  2
none_device
  4
ISO_A4_(210.00_x_297.00_MM)
  6

 40
7.5
 41
20.0
 42
7.5
 43
20.0
 44
210.0
 45
297.0
 46
11.54999923706054
 47
-13.65000009536743
 48
0.0
 49
0.0
140
0.0
141
0.0
142
1.0
143
8.704084754739808
 70
 11952
 72
     1
 73
     0
 74
     0
  7

 75
     0
147
0.1148885871608098
148
0.0
149
0.0
100
AcDbLayout
  1
Model
 70
     1
 71
     0
 10
0.0
 20
0.0
 11
12.0
 21
9.0
 12
0.0
 22
0.0
 32
0.0
 14
0.0
 24
0.0
 34
0.0
 15
0.0
 25
0.0
 35
0.0
146
0.0
 13
0.0
 23
0.0
 33
0.0
 16
1.0
 26
0.0
 36
0.0
 17
0.0
 27
1.0
 37
0.0
 76
     0
330
1F
331
EA
1001
ACAD_PSEXT
1000
None
1000
None
1000
Not applicable
1000
The layout will not be plotted unless a new plotter configuration name is selected.
1070
     0
  0
MATERIAL
  5
ED
102
{ACAD_XDICTIONARY
360
1F9
102
}
102
{ACAD_REACTORS
330
6A
102
}
330
6A
100
AcDbMaterial
  1
ByBlock
  0
MATERIAL
  5
EC
102
{ACAD_XDICTIONARY
360
1F7
102
}
102
{ACAD_REACTORS
330
6A
102
}
330
6A
100
AcDbMaterial
  1
ByLayer
  0
MATERIAL
  5
EE
102
{ACAD_XDICTIONARY
360
173
102
}
102
{ACAD_REACTORS
330
6A
102
}
330
6A
100
AcDbMaterial
  1
Global
 43
0.0007999999797903
 43
0.0
 43
0.0
 43
0.0
 43
0.0
 43
0.0007999999797903
 43
0.0
 43
0.0
 43
0.0
 43
0.0
 43
1.0
 43
0.0
 43
0.0
 43
0.0
 43
0.0
 43
1.0
 49
0.0007999999797903
 49
0.0
 49
0.0
 49
0.0
 49
0.0
 49
0.0007999999797903
 49
0.0
 49
0.0
 49
0.0
 49
0.0
 49
1.0
 49
0.0
 49
0.0
 49
0.0
 49
0.0
 49
1.0
142
0.0007999999797903
142
0.0
142
0.0
142
0.0
142
0.0
142
0.0007999999797903
142
0.0
142
0.0
142
0.0
142
0.0
142
1.0
142
0.0
142
0.0
142
0.0
142
0.0
142
1.0
144
0.0007999999797903
144
0.0
144
0.0
144
0.0
144
0.0
144
0.0007999999797903
144
0.0
144
0.0
144
0.0
144
0.0
144
1.0
144
0.0
144
0.0
144
0.0
144
0.0
144
1.0
1001
ACAD
1070
    -1
1070
     3
1070
     0
1000

1071
        0
1070
     0
  0
MLEADERSTYLE
  5
12E
102
{ACAD_XDICTIONARY
360
205A
102
}
102
{ACAD_REACTORS
330
12D
102
}
330
12D
100
AcDbMLeaderStyle
170
     2
171
     1
172
     0
 90
        2
 40
0.0
 41
0.0
173
     1
 91
-1056964608
340
14
 92
       -2
290
     1
 42
2.0
291
     1
 43
8.0
  3
Standard
 44
4.0
300

342
11
174
     1
178
     1
175
     1
176
     0
 93
-1056964608
 45
4.0
292
     0
297
     0
 46
4.0
 94
-1056964608
 47
1.0
 49
1.0
140
1.0
293
     1
141
0.0
294
     1
177
     0
142
1.0
295
     0
296
     0
143
3.75
1001
ACAD_MLEADERVER
1070
     2
  0
MLINESTYLE
  5
18
102
{ACAD_REACTORS
330
17
102
}
330
17
100
AcDbMlineStyle
  2
STANDARD
 70
     0
  3

 62
   256
 51
90.0
 52
90.0
 71
     2
 49
0.5
 62
   256
  6
BYLAYER
 49
-0.5
 62
   256
  6
BYLAYER
  0
ACDBPLACEHOLDER
  5
F
102
{ACAD_REACTORS
330
E
102
}
330
E
  0
SCALE
  5
10D
102
{ACAD_REACTORS
330
10C
102
}
330
10C
100
AcDbScale
 70
     0
300
1:1
140
1.0
141
1.0
290
     1
  0
SCALE
  5
1BE
102
{ACAD_REACTORS
330
10C
102
}
330
10C
100
AcDbScale
 70
     0
300
1:2
140
1.0
141
2.0
290
     0
  0
SCALE
  5
1BF
102
{ACAD_REACTORS
330
10C
102
}
330
10C
100
AcDbScale
 70
     0
300
1:4
140
1.0
141
4.0
290
     0
  0
SCALE
  5
1C0
102
{ACAD_REACTORS
330
10C
102
}
330
10C
100
AcDbScale
 70
     0
300
1:5
140
1.0
141
5.0
290
     0
  0
SCALE
  5
1C1
102
{ACAD_REACTORS
330
10C
102
}
330
10C
100
AcDbScale
 70
     0
300
1:8
140
1.0
141
8.0
290
     0
  0
SCALE
  5
1C2
102
{ACAD_REACTORS
330
10C
102
}
330
10C
100
AcDbScale
 70
     0
300
1:10
140
1.0
141
10.0
290
     0
  0
SCALE
  5
1C3
102
{ACAD_REACTORS
330
10C
102
}
330
10C
100
AcDbScale
 70
     0
300
1:16
140
1.0
141
16.0
290
     0
  0
SCALE
  5
1C4
102
{ACAD_REACTORS
330
10C
102
}
330
10C
100
AcDbScale
 70
     0
300
1:20
140
1.0
141
20.0
290
     0
  0
SCALE
  5
1C5
102
{ACAD_REACTORS
330
10C
102
}
330
10C
100
AcDbScale
 70
     0
300
1:30
140
1.0
141
30.0
290
     0
  0
SCALE
  5
1C6
102
{ACAD_REACTORS
330
10C
102
}
330
10C
100
AcDbScale
 70
     0
300
1:40
140
1.0
141
40.0
290
     0
  0
SCALE
  5
1C7
102
{ACAD_REACTORS
330
10C
102
}
330
10C
100
AcDbScale
 70
     0
300
1:50
140
1.0
141
50.0
290
     0
  0
SCALE
  5
1C8
102
{ACAD_REACTORS
330
10C
102
}
330
10C
100
AcDbScale
 70
     0
300
1:100
140
1.0
141
100.0
290
     0
  0
SCALE
  5
1C9
102
{ACAD_REACTORS
330
10C
102
}
330
10C
100
AcDbScale
 70
     0
300
2:1
140
2.0
141
1.0
290
     0
  0
SCALE
  5
1CA
102
{ACAD_REACTORS
330
10C
102
}
330
10C
100
AcDbScale
 70
     0
300
4:1
140
4.0
141
1.0
290
     0
  0
SCALE
  5
1CB
102
{ACAD_REACTORS
330
10C
102
}
330
10C
100
AcDbScale
 70
     0
300
8:1
140
8.0
141
1.0
290
     0
  0
SCALE
  5
1CC
102
{ACAD_REACTORS
330
10C
102
}
330
10C
100
AcDbScale
 70
     0
300
10:1
140
10.0
141
1.0
290
     0
  0
SCALE
  5
1CD
102
{ACAD_REACTORS
330
10C
102
}
330
10C
100
AcDbScale
 70
     0
300
100:1
140
100.0
141
1.0
290
     0
  0
ACDBSECTIONVIEWSTYLE
  5
21A
102
{ACAD_XDICTIONARY
360
206C
102
}
102
{ACAD_REACTORS
330
219
102
}
330
219
100
AcDbModelDocViewStyle
 70
     0
  3
Metric50
290
     0
100
AcDbSectionViewStyle
 70
     0
 71
     0
 90
      102
 71
     1
340
11
 40
5.0
340
0
340
0
 40
5.0
300
I, O, Q, S, X, Z
 40
10.0
 90
        0
 40
2.5
 90
        0
 71
     2
340
16
 90
       25
340
16
 90
       50
 40
5.0
 40
2.5
 40
5.0
 71
     3
340
11
 40
5.0
 90
        0
 40
15.0
 90
        1
300
%<\AcVar ViewSectionStartId>%-%<\AcVar ViewSectionEndId>% (%<\AcVar ViewScale \f "%sn">%)
 71
     4
300
ANSI31
 40
1.0
 90
        0
290
     0
290
     0
 90
        6
 40
0.0
 40
1.570796326794896
 40
0.2617993877991494
 40
1.308996938995747
 40
-0.2617993877991494
 40
1.832595714594046
  0
TABLESTYLE
  5
7F
102
{ACAD_XDICTIONARY
360
162
102
}
102
{ACAD_REACTORS
330
7E
102
}
330
7E
100
AcDbTableStyle
  3
Standard
 70
     0
 71
     0
 40
1.5
 41
1.5
280
     0
281
     0
  7
Standard
140
4.5
170
     2
 62
     0
 63
     7
283
     0
274
    -2
284
     1
 64
     0
275
    -2
285
     1
 65
     0
276
    -2
286
     1
 66
     0
277
    -2
287
     1
 67
     0
278
    -2
288
     1
 68
     0
279
    -2
289
     1
 69
     0
  7
Standard
140
6.0
170
     5
 62
     0
 63
     7
283
     0
274
    -2
284
     1
 64
     0
275
    -2
285
     1
 65
     0
276
    -2
286
     1
 66
     0
277
    -2
287
     1
 67
     0
278
    -2
288
     1
 68
     0
279
    -2
289
     1
 69
     0
  7
Standard
140
4.5
170
     5
 62
     0
 63
     7
283
     0
274
    -2
284
     1
 64
     0
275
    -2
285
     1
 65
     0
276
    -2
286
     1
 66
     0
277
    -2
287
     1
 67
     0
278
    -2
288
     1
 68
     0
279
    -2
289
     1
 69
     0
  0
VISUALSTYLE
  5
F5
102
{ACAD_XDICTIONARY
360
2044
102
}
102
{ACAD_REACTORS
330
EF
102
}
330
EF
100
AcDbVisualStyle
  2
2dWireframe
 70
     4
 71
     0
 72
     2
 73
     1
 90
        0
 40
-0.6
 41
-30.0
 62
     5
 63
     7
 74
     1
 91
        4
 64
     7
 65
   257
 75
     1
175
     1
 42
1.0
 92
        0
 66
   257
 43
1.0
 76
     1
 77
     6
 78
     2
 67
     7
 79
     5
170
     0
171
     0
290
     0
174
     0
 93
        1
 44
0.0
173
     0
291
     0
 45
0.0
1001
ACAD
1000
AcDbSavedByObjectVersion
1070
     0
  0
VISUALSTYLE
  5
F4
102
{ACAD_XDICTIONARY
360
2042
102
}
102
{ACAD_REACTORS
330
EF
102
}
330
EF
100
AcDbVisualStyle
  2
Basic
 70
     7
 71
     1
 72
     0
 73
     1
 90
        0
 40
-0.6
 41
-30.0
 62
     5
 63
     7
 74
     0
 91
        4
 64
     7
 65
   257
 75
     1
175
     1
 42
1.0
 92
        8
 66
     7
 43
1.0
 76
     1
 77
     6
 78
     2
 67
     7
 79
     5
170
     0
171
     0
290
     0
174
     0
 93
        1
 44
0.0
173
     0
291
     1
 45
0.0
1001
ACAD
1000
AcDbSavedByObjectVersion
1070
     0
  0
VISUALSTYLE
  5
FB
102
{ACAD_XDICTIONARY
360
2050
102
}
102
{ACAD_REACTORS
330
EF
102
}
330
EF
100
AcDbVisualStyle
  2
Brighten
 70
    12
 71
     2
 72
     2
 73
     1
 90
        0
 40
-0.6
 41
-30.0
 62
     5
 63
     7
 74
     1
 91
        4
 64
     7
 65
   257
 75
     1
175
     1
 42
1.0
 92
        8
 66
     7
 43
1.0
 76
     1
 77
     6
 78
     2
 67
     7
 79
     5
170
     0
171
     0
290
     0
174
     0
 93
        1
 44
50.0
173
     0
291
     1
 45
0.0
1001
ACAD
1000
AcDbSavedByObjectVersion
1070
     0
  0
VISUALSTYLE
  5
FF
102
{ACAD_XDICTIONARY
360
2058
102
}
102
{ACAD_REACTORS
330
EF
102
}
330
EF
100
AcDbVisualStyle
  2
ColorChange
 70
    16
 71
     2
 72
     2
 73
     3
 90
        0
 40
-0.6
 41
-30.0
 62
     5
 63
     8
 74
     1
 91
        4
 64
     7
 65
   257
 75
     1
175
     1
 42
1.0
 92
        8
 66
     8
 43
1.0
 76
     1
 77
     6
 78
     2
 67
     7
 79
     5
170
     0
171
     0
290
     0
174
     0
 93
        1
 44
0.0
173
     0
291
     1
 45
0.0
1001
ACAD
1000
AcDbSavedByObjectVersion
1070
     0
  0
VISUALSTYLE
  5
F8
102
{ACAD_XDICTIONARY
360
204A
102
}
102
{ACAD_REACTORS
330
EF
102
}
330
EF
100
AcDbVisualStyle
  2
Conceptual
 70
     9
 71
     3
 72
     2
 73
     1
 90
        0
 40
-0.6
 41
-30.0
 62
     5
 63
     7
 74
     2
 91
        2
 64
     7
 65
   257
 75
     1
175
     1
 42
40.0
 92
        8
 66
     7
 43
1.0
 76
     1
 77
     6
 78
     2
 67
     7
 79
     3
170
     0
171
     0
290
     0
174
     0
 93
        1
 44
0.0
173
     0
291
     0
 45
0.0
1001
ACAD
1000
AcDbSavedByObjectVersion
1070
     0
  0
VISUALSTYLE
  5
FA
102
{ACAD_XDICTIONARY
360
204E
102
}
102
{ACAD_REACTORS
330
EF
102
}
330
EF
100
AcDbVisualStyle
  2
Dim
 70
    11
 71
     2
 72
     2
 73
     1
 90
        0
 40
-0.6
 41
-30.0
 62
     5
 63
     7
 74
     1
 91
        4
 64
     7
 65
   257
 75
     1
175
     1
 42
1.0
 92
        8
 66
     7
 43
1.0
 76
     1
 77
     6
 78
     2
 67
     7
 79
     5
170
     0
171
     0
290
     0
174
     0
 93
        1
 44
-50.0
173
     0
291
     1
 45
0.0
1001
ACAD
1000
AcDbSavedByObjectVersion
1070
     0
  0
VISUALSTYLE
  5
1E6
102
{ACAD_XDICTIONARY
360
2060
102
}
102
{ACAD_REACTORS
330
EF
102
}
330
EF
100
AcDbVisualStyle
  2
EdgeColorOff
 70
    22
 71
     2
 72
     2
 73
     0
 90
        0
 40
-0.6
 41
-30.0
 62
     5
 63
     7
 74
     1
 91
        4
 64
     7
 65
   257
 75
     1
175
     1
 42
1.0
 92
        8
 66
     7
 43
1.0
 76
     1
 77
     6
 78
     2
 67
     7
 79
     5
170
     0
171
     0
290
     0
174
     0
 93
        1
 44
0.0
173
     0
291
     1
 45
0.0
1001
ACAD
1000
AcDbSavedByObjectVersion
1070
     0
  0
VISUALSTYLE
  5
FE
102
{ACAD_XDICTIONARY
360
2056
102
}
102
{ACAD_REACTORS
330
EF
102
}
330
EF
100
AcDbVisualStyle
  2
Facepattern
 70
    15
 71
     2
 72
     2
 73
     1
 90
        0
 40
-0.6
 41
-30.0
 62
     5
 63
     7
 74
     1
 91
        4
 64
     7
 65
   257
 75
     1
175
     1
 42
1.0
 92
        8
 66
     7
 43
1.0
 76
     1
 77
     6
 78
     2
 67
     7
 79
     5
170
     0
171
     0
290
     0
174
     0
 93
        1
 44
0.0
173
     0
291
     1
 45
0.0
1001
ACAD
1000
AcDbSavedByObjectVersion
1070
     0
  0
VISUALSTYLE
  5
F0
102
{ACAD_XDICTIONARY
360
203A
102
}
102
{ACAD_REACTORS
330
EF
102
}
330
EF
100
AcDbVisualStyle
  2
Flat
 70
     0
 71
     2
 72
     1
 73
     1
 90
        2
 40
-0.6
 41
30.0
 62
     5
 63
     7
 74
     0
 91
        0
 64
     7
 65
   257
 75
     1
175
     1
 42
1.0
 92
        8
 66
     7
 43
1.0
 76
     1
 77
     6
 78
     2
 67
     7
 79
     5
170
     0
171
     0
290
     0
174
     0
 93
       13
 44
0.0
173
     0
291
     1
 45
0.0
1001
ACAD
1000
AcDbSavedByObjectVersion
1070
     0
  0
VISUALSTYLE
  5
F1
102
{ACAD_XDICTIONARY
360
203C
102
}
102
{ACAD_REACTORS
330
EF
102
}
330
EF
100
AcDbVisualStyle
  2
FlatWithEdges
 70
     1
 71
     2
 72
     1
 73
     1
 90
        2
 40
-0.6
 41
30.0
 62
     5
 63
     7
 74
     1
 91
        0
 64
     7
 65
   257
 75
     1
175
     1
 42
1.0
 92
        0
 66
   257
 43
1.0
 76
     1
 77
     6
 78
     2
 67
     7
 79
     5
170
     0
171
     0
290
     0
174
     0
 93
       13
 44
0.0
173
     0
291
     1
 45
0.0
1001
ACAD
1000
AcDbSavedByObjectVersion
1070
     0
  0
VISUALSTYLE
  5
F2
102
{ACAD_XDICTIONARY
360
203E
102
}
102
{ACAD_REACTORS
330
EF
102
}
330
EF
100
AcDbVisualStyle
  2
Gouraud
 70
     2
 71
     2
 72
     2
 73
     1
 90
        2
 40
-0.6
 41
30.0
 62
     5
 63
     7
 74
     0
 91
        0
 64
     7
 65
   257
 75
     1
175
     1
 42
1.0
 92
        0
 66
     7
 43
1.0
 76
     1
 77
     6
 78
     2
 67
     7
 79
     5
170
     0
171
     0
290
     0
174
     0
 93
       13
 44
0.0
173
     0
291
     1
 45
0.0
1001
ACAD
1000
AcDbSavedByObjectVersion
1070
     0
  0
VISUALSTYLE
  5
F3
102
{ACAD_XDICTIONARY
360
2040
102
}
102
{ACAD_REACTORS
330
EF
102
}
330
EF
100
AcDbVisualStyle
  2
GouraudWithEdges
 70
     3
 71
     2
 72
     2
 73
     1
 90
        2
 40
-0.6
 41
30.0
 62
     5
 63
     7
 74
     1
 91
        0
 64
     7
 65
   257
 75
     1
175
     1
 42
1.0
 92
        0
 66
   257
 43
1.0
 76
     1
 77
     6
 78
     2
 67
     7
 79
     5
170
     0
171
     0
290
     0
174
     0
 93
       13
 44
0.0
173
     0
291
     1
 45
0.0
1001
ACAD
1000
AcDbSavedByObjectVersion
1070
     0
  0
VISUALSTYLE
  5
F7
102
{ACAD_XDICTIONARY
360
2048
102
}
102
{ACAD_REACTORS
330
EF
102
}
330
EF
100
AcDbVisualStyle
  2
Hidden
 70
     6
 71
     1
 72
     2
 73
     2
 90
        0
 40
-0.6
 41
-30.0
 62
     5
 63
     7
 74
     2
 91
        2
 64
     7
 65
   257
 75
     2
175
     1
 42
40.0
 92
        0
 66
   257
 43
1.0
 76
     1
 77
     6
 78
     2
 67
     7
 79
     3
170
     0
171
     0
290
     0
174
     0
 93
        1
 44
0.0
173
     0
291
     0
 45
0.0
1001
ACAD
1000
AcDbSavedByObjectVersion
1070
     0
  0
VISUALSTYLE
  5
1E4
102
{ACAD_XDICTIONARY
360
205C
102
}
102
{ACAD_REACTORS
330
EF
102
}
330
EF
100
AcDbVisualStyle
  2
JitterOff
 70
    20
 71
     2
 72
     2
 73
     0
 90
        0
 40
-0.6
 41
-30.0
 62
     5
 63
     7
 74
     1
 91
        4
 64
     7
 65
   257
 75
     1
175
     1
 42
1.0
 92
       10
 66
     7
 43
1.0
 76
     1
 77
     6
 78
     2
 67
     7
 79
     5
170
     0
171
     0
290
     0
174
     0
 93
        1
 44
0.0
173
     0
291
     1
 45
0.0
1001
ACAD
1000
AcDbSavedByObjectVersion
1070
     0
  0
VISUALSTYLE
  5
FD
102
{ACAD_XDICTIONARY
360
2054
102
}
102
{ACAD_REACTORS
330
EF
102
}
330
EF
100
AcDbVisualStyle
  2
Linepattern
 70
    14
 71
     2
 72
     2
 73
     1
 90
        0
 40
-0.6
 41
-30.0
 62
     5
 63
     7
 74
     1
 91
        4
 64
     7
 65
   257
 75
     7
175
     7
 42
1.0
 92
        8
 66
     7
 43
1.0
 76
     1
 77
     6
 78
     2
 67
     7
 79
     5
170
     0
171
     0
290
     0
174
     0
 93
        1
 44
0.0
173
     0
291
     1
 45
0.0
1001
ACAD
1000
AcDbSavedByObjectVersion
1070
     0
  0
VISUALSTYLE
  5
1E5
102
{ACAD_XDICTIONARY
360
205E
102
}
102
{ACAD_REACTORS
330
EF
102
}
330
EF
100
AcDbVisualStyle
  2
OverhangOff
 70
    21
 71
     2
 72
     2
 73
     0
 90
        0
 40
-0.6
 41
-30.0
 62
     5
 63
     7
 74
     1
 91
        4
 64
     7
 65
   257
 75
     1
175
     1
 42
1.0
 92
        9
 66
     7
 43
1.0
 76
     1
 77
     6
 78
     2
 67
     7
 79
     5
170
     0
171
     0
290
     0
174
     0
 93
        1
 44
0.0
173
     0
291
     1
 45
0.0
1001
ACAD
1000
AcDbSavedByObjectVersion
1070
     0
  0
VISUALSTYLE
  5
F9
102
{ACAD_XDICTIONARY
360
204C
102
}
102
{ACAD_REACTORS
330
EF
102
}
330
EF
100
AcDbVisualStyle
  2
Realistic
 70
     8
 71
     2
 72
     2
 73
     0
 90
        2
 40
-0.6
 41
30.0
 62
     5
 63
     7
 74
     0
 91
        0
 64
     7
 65
   257
 75
     1
175
     1
 42
1.0
 92
        8
 66
   257
 43
1.0
 76
     1
 77
     6
 78
     2
 67
     7
 79
     3
170
     0
171
     0
290
     0
174
     0
 93
       13
 44
0.0
173
     0
291
     0
 45
0.0
1001
ACAD
1000
AcDbSavedByObjectVersion
1070
     0
  0
VISUALSTYLE
  5
1F3
102
{ACAD_XDICTIONARY
360
206A
102
}
102
{ACAD_REACTORS
330
EF
102
}
330
EF
100
AcDbVisualStyle
  2
Shaded
 70
    27
 71
     2
 72
     2
 73
     1
 90
        2
 40
-0.6
 41
30.0
 62
     5
 63
     7
 74
     0
 91
        4
 64
     7
 65
   257
 75
     1
175
     1
 42
1.0
 92
        8
 66
   257
 43
1.0
 76
     1
 77
     6
 78
     2
 67
     8
 79
     3
170
     0
171
     0
290
     0
174
     0
 93
        5
 44
0.0
173
     0
291
     0
 45
0.0
1001
ACAD
1000
AcDbSavedByObjectVersion
1070
     0
  0
VISUALSTYLE
  5
1F2
102
{ACAD_XDICTIONARY
360
2068
102
}
102
{ACAD_REACTORS
330
EF
102
}
330
EF
100
AcDbVisualStyle
  2
Shaded with edges
 70
    26
 71
     2
 72
     2
 73
     1
 90
        2
 40
-0.6
 41
30.0
 62
     5
 63
     7
 74
     1
 91
        2
 64
     7
 65
   257
 75
     2
175
     1
 42
1.0
 92
        8
 66
   257
 43
1.0
 76
     1
 77
     6
 78
     2
 67
     7
 79
     3
170
     0
171
     0
290
     0
174
     0
 93
        5
 44
0.0
173
     0
291
     0
 45
0.0
1001
ACAD
1000
AcDbSavedByObjectVersion
1070
     0
  0
VISUALSTYLE
  5
1EF
102
{ACAD_XDICTIONARY
360
2062
102
}
102
{ACAD_REACTORS
330
EF
102
}
330
EF
100
AcDbVisualStyle
  2
Shades of Gray
 70
    23
 71
     2
 72
     2
 73
     3
 90
        0
 40
-0.6
 41
-30.0
 62
     5
 63
     7
 74
     2
 91
        2
 64
     7
 65
     7
 75
     1
175
     1
 42
40.0
 92
        8
 66
     7
 43
1.0
 76
     1
 77
     6
 78
     2
 67
     7
 79
     3
170
     0
171
     0
290
     0
174
     0
 93
        1
 44
0.0
173
     0
291
     0
 45
0.0
1001
ACAD
1000
AcDbSavedByObjectVersion
1070
     0
  0
VISUALSTYLE
  5
1F0
102
{ACAD_XDICTIONARY
360
2064
102
}
102
{ACAD_REACTORS
330
EF
102
}
330
EF
100
AcDbVisualStyle
  2
Sketchy
 70
    24
 71
     1
 72
     2
 73
     2
 90
        0
 40
-0.6
 41
-30.0
 62
     5
 63
     7
 74
     2
 91
        2
 64
     7
 65
     7
 75
     1
175
     1
 42
40.0
 92
       11
 66
     7
 43
1.0
 76
     1
 77
     6
 78
     2
 67
     7
 79
     6
170
     0
171
     0
290
     0
174
     0
 93
        1
 44
0.0
173
     0
291
     0
 45
0.0
1001
ACAD
1000
AcDbSavedByObjectVersion
1070
     0
  0
VISUALSTYLE
  5
FC
102
{ACAD_XDICTIONARY
360
2052
102
}
102
{ACAD_REACTORS
330
EF
102
}
330
EF
100
AcDbVisualStyle
  2
Thicken
 70
    13
 71
     2
 72
     2
 73
     1
 90
        0
 40
-0.6
 41
-30.0
 62
     5
 63
     7
 74
     1
 91
        4
 64
     7
 65
   257
 75
     1
175
     1
 42
1.0
 92
       12
 66
     7
 43
1.0
 76
     1
 77
     6
 78
     2
 67
     7
 79
     5
170
     0
171
     0
290
     0
174
     0
 93
        1
 44
0.0
173
     0
291
     1
 45
0.0
1001
ACAD
1000
AcDbSavedByObjectVersion
1070
     0
  0
VISUALSTYLE
  5
F6
102
{ACAD_XDICTIONARY
360
2046
102
}
102
{ACAD_REACTORS
330
EF
102
}
330
EF
100
AcDbVisualStyle
  2
Wireframe
 70
     5
 71
     0
 72
     2
 73
     0
 90
        0
 40
-0.6
 41
-30.0
 62
     5
 63
     7
 74
     1
 91
        4
 64
     7
 65
   257
 75
     1
175
     1
 42
1.0
 92
        0
 66
   257
 43
1.0
 76
     1
 77
     6
 78
     2
 67
     7
 79
     3
170
     0
171
     0
290
     0
174
     0
 93
        1
 44
0.0
173
     0
291
     0
 45
0.0
1001
ACAD
1000
AcDbSavedByObjectVersion
1070
     0
  0
VISUALSTYLE
  5
1F1
102
{ACAD_XDICTIONARY
360
2066
102
}
102
{ACAD_REACTORS
330
EF
102
}
330
EF
100
AcDbVisualStyle
  2
X-Ray
 70
    25
 71
     2
 72
     2
 73
     1
 90
        1
 40
0.5
 41
-30.0
 62
     5
 63
     7
 74
     1
 91
        0
 64
     7
 65
   257
 75
     1
175
     1
 42
1.0
 92
        8
 66
     7
 43
1.0
 76
     1
 77
     6
 78
     2
 67
     7
 79
     3
170
     0
171
     0
290
     0
174
     0
 93
       13
 44
0.0
173
     0
291
     0
 45
0.0
1001
ACAD
1000
AcDbSavedByObjectVersion
1070
     0
  0
DICTIONARYVAR
  5
146
102
{ACAD_REACTORS
330
5E
102
}
330
5E
100
DictionaryVariables
280
     0
  1
1:1
  0
DICTIONARYVAR
  5
259
102
{ACAD_REACTORS
330
5E
102
}
330
5E
100
DictionaryVariables
280
     0
  1
3.500000
  0
DICTIONARYVAR
  5
25A
102
{ACAD_REACTORS
330
5E
102
}
330
5E
100
DictionaryVariables
280
     0
  1
acadiso.lin
  0
DICTIONARYVAR
  5
145
102
{ACAD_REACTORS
330
5E
102
}
330
5E
100
DictionaryVariables
280
     0
  1
STANDARD
  0
DICTIONARYVAR
  5
84
102
{ACAD_REACTORS
330
5E
102
}
330
5E
100
DictionaryVariables
280
     0
  1
STANDARD
  0
DICTIONARYVAR
  5
227
102
{ACAD_REACTORS
330
5E
102
}
330
5E
100
DictionaryVariables
280
     0
  1
Metric50
  0
DICTIONARYVAR
  5
228
102
{ACAD_REACTORS
330
5E
102
}
330
5E
100
DictionaryVariables
280
     0
  1
Metric50
  0
DICTIONARYVAR
  5
5F
102
{ACAD_REACTORS
330
5E
102
}
330
5E
100
DictionaryVariables
280
     0
  1
2
  0
DICTIONARYVAR
  5
63
102
{ACAD_REACTORS
330
5E
102
}
330
5E
100
DictionaryVariables
280
     0
  1
1
  0
DICTIONARYVAR
  5
1FDB
102
{ACAD_REACTORS
330
5E
102
}
330
5E
100
DictionaryVariables
280
     0
  1
0
  0
DICTIONARYVAR
  5
1AE
102
{ACAD_REACTORS
330
5E
102
}
330
5E
100
DictionaryVariables
280
     0
  1
0
  0
DICTIONARYVAR
  5
1AF
102
{ACAD_REACTORS
330
5E
102
}
330
5E
100
DictionaryVariables
280
     0
  1
0
  0
DICTIONARYVAR
  5
1FD9
102
{ACAD_REACTORS
330
5E
102
}
330
5E
100
DictionaryVariables
280
     0
  1
2
  0
DICTIONARYVAR
  5
1FD8
102
{ACAD_REACTORS
330
5E
102
}
330
5E
100
DictionaryVariables
280
     0
  1
1
  0
DICTIONARYVAR
  5
202B
102
{ACAD_REACTORS
330
5E
102
}
330
5E
100
DictionaryVariables
280
     0
  1
80.000000
  0
DICTIONARYVAR
  5
202A
102
{ACAD_REACTORS
330
5E
102
}
330
5E
100
DictionaryVariables
280
     0
  1
5.000000
  0
DICTIONARYVAR
  5
1FDA
102
{ACAD_REACTORS
330
5E
102
}
330
5E
100
DictionaryVariables
280
     0
  1
127
  0
DICTIONARYVAR
  5
202C
102
{ACAD_REACTORS
330
5E
102
}
330
5E
100
DictionaryVariables
280
     0
  1
2
  0
DICTIONARY
  5
206E
330
21C
100
AcDbDictionary
280
     1
281
     1
  3
ACAD_XREC_ROUNDTRIP
360
206F
  0
DICTIONARY
  5
2033
330
D3
100
AcDbDictionary
280
     1
281
     1
  3
ACAD_XREC_ROUNDTRIP
360
2034
  0
DICTIONARY
  5
2035
330
D7
100
AcDbDictionary
280
     1
281
     1
  3
ACAD_XREC_ROUNDTRIP
360
2036
  0
DICTIONARY
  5
2030
330
22
100
AcDbDictionary
280
     1
281
     1
  3
ACAD_XREC_ROUNDTRIP
360
2031
  0
DICTIONARY
  5
1F9
330
ED
100
AcDbDictionary
280
     1
281
     1
  3
ACAD_XREC_ROUNDTRIP
360
2038
  3
FBXASSET
360
1FA
  0
DICTIONARY
  5
1F7
330
EC
100
AcDbDictionary
280
     1
281
     1
  3
ACAD_XREC_ROUNDTRIP
360
2037
  3
FBXASSET
360
1F8
  0
DICTIONARY
  5
173
330
EE
100
AcDbDictionary
280
     1
281
     1
  3
ACAD_XREC_ROUNDTRIP
360
2039
  3
BUMPTILE
360
175
  3
DIFFUSETILE
360
174
  3
FBXASSET
360
1FB
  3
OPACITYTILE
360
176
  3
REFLECTIONTILE
360
177
  0
DICTIONARY
  5
205A
330
12E
100
AcDbDictionary
280
     1
281
     1
  3
ACAD_XREC_ROUNDTRIP
360
205B
  0
DICTIONARY
  5
206C
330
21A
100
AcDbDictionary
280
     1
281
     1
  3
ACAD_XREC_ROUNDTRIP
360
206D
  0
DICTIONARY
  5
162
330
7F
100
AcDbDictionary
280
     1
281
     1
  3
ACAD_ROUNDTRIP_2008_TABLESTYLE_CELLSTYLEMAP
360
202D
  3
ACAD_XREC_ROUNDTRIP
360
2032
  0
DICTIONARY
  5
2044
330
F5
100
AcDbDictionary
280
     1
281
     1
  3
ACAD_XREC_ROUNDTRIP
360
2045
  0
DICTIONARY
  5
2042
330
F4
100
AcDbDictionary
280
     1
281
     1
  3
ACAD_XREC_ROUNDTRIP
360
2043
  0
DICTIONARY
  5
2050
330
FB
100
AcDbDictionary
280
     1
281
     1
  3
ACAD_XREC_ROUNDTRIP
360
2051
  0
DICTIONARY
  5
2058
330
FF
100
AcDbDictionary
280
     1
281
     1
  3
ACAD_XREC_ROUNDTRIP
360
2059
  0
DICTIONARY
  5
204A
330
F8
100
AcDbDictionary
280
     1
281
     1
  3
ACAD_XREC_ROUNDTRIP
360
204B
  0
DICTIONARY
  5
204E
330
FA
100
AcDbDictionary
280
     1
281
     1
  3
ACAD_XREC_ROUNDTRIP
360
204F
  0
DICTIONARY
  5
2060
330
1E6
100
AcDbDictionary
280
     1
281
     1
  3
ACAD_XREC_ROUNDTRIP
360
2061
  0
DICTIONARY
  5
2056
330
FE
100
AcDbDictionary
280
     1
281
     1
  3
ACAD_XREC_ROUNDTRIP
360
2057
  0
DICTIONARY
  5
203A
330
F0
100
AcDbDictionary
280
     1
281
     1
  3
ACAD_XREC_ROUNDTRIP
360
203B
  0
DICTIONARY
  5
203C
330
F1
100
AcDbDictionary
280
     1
281
     1
  3
ACAD_XREC_ROUNDTRIP
360
203D
  0
DICTIONARY
  5
203E
330
F2
100
AcDbDictionary
280
     1
281
     1
  3
ACAD_XREC_ROUNDTRIP
360
203F
  0
DICTIONARY
  5
2040
330
F3
100
AcDbDictionary
280
     1
281
     1
  3
ACAD_XREC_ROUNDTRIP
360
2041
  0
DICTIONARY
  5
2048
330
F7
100
AcDbDictionary
280
     1
281
     1
  3
ACAD_XREC_ROUNDTRIP
360
2049
  0
DICTIONARY
  5
205C
330
1E4
100
AcDbDictionary
280
     1
281
     1
  3
ACAD_XREC_ROUNDTRIP
360
205D
  0
DICTIONARY
  5
2054
330
FD
100
AcDbDictionary
280
     1
281
     1
  3
ACAD_XREC_ROUNDTRIP
360
2055
  0
DICTIONARY
  5
205E
330
1E5
100
AcDbDictionary
280
     1
281
     1
  3
ACAD_XREC_ROUNDTRIP
360
205F
  0
DICTIONARY
  5
204C
330
F9
100
AcDbDictionary
280
     1
281
     1
  3
ACAD_XREC_ROUNDTRIP
360
204D
  0
DICTIONARY
  5
206A
330
1F3
100
AcDbDictionary
280
     1
281
     1
  3
ACAD_XREC_ROUNDTRIP
360
206B
  0
DICTIONARY
  5
2068
330
1F2
100
AcDbDictionary
280
     1
281
     1
  3
ACAD_XREC_ROUNDTRIP
360
2069
  0
DICTIONARY
  5
2062
330
1EF
100
AcDbDictionary
280
     1
281
     1
  3
ACAD_XREC_ROUNDTRIP
360
2063
  0
DICTIONARY
  5
2064
330
1F0
100
AcDbDictionary
280
     1
281
     1
  3
ACAD_XREC_ROUNDTRIP
360
2065
  0
DICTIONARY
  5
2052
330
FC
100
AcDbDictionary
280
     1
281
     1
  3
ACAD_XREC_ROUNDTRIP
360
2053
  0
DICTIONARY
  5
2046
330
F6
100
AcDbDictionary
280
     1
281
     1
  3
ACAD_XREC_ROUNDTRIP
360
2047
  0
DICTIONARY
  5
2066
330
1F1
100
AcDbDictionary
280
     1
281
     1
  3
ACAD_XREC_ROUNDTRIP
360
2067
  0
XRECORD
  5
206F
102
{ACAD_REACTORS
330
206E
102
}
330
206E
100
AcDbXrecord
280
     1
102
DISPLAYNAME
  1
Metric50
102
FLAGS
 90
        0
  0
XRECORD
  5
2034
102
{ACAD_REACTORS
330
2033
102
}
330
2033
100
AcDbXrecord
280
     1
102
SHADEPLOT
 70
     0
102
SHADEPLOTRESLEVEL
 70
     2
102
SHADEPLOTCUSTOMDPI
 70
   300
  0
XRECORD
  5
2036
102
{ACAD_REACTORS
330
2035
102
}
330
2035
100
AcDbXrecord
280
     1
102
SHADEPLOT
 70
     0
102
SHADEPLOTRESLEVEL
 70
     2
102
SHADEPLOTCUSTOMDPI
 70
   300
  0
XRECORD
  5
2031
102
{ACAD_REACTORS
330
2030
102
}
330
2030
100
AcDbXrecord
280
     1
102
SHADEPLOT
 70
     0
102
SHADEPLOTRESLEVEL
 70
     2
102
SHADEPLOTCUSTOMDPI
 70
   300
  0
XRECORD
  5
2038
102
{ACAD_REACTORS
330
1F9
102
}
330
1F9
100
AcDbXrecord
280
     1
102
MATERIAL
148
0.0
149
0.0
149
0.0
 93
        0
 94
       63
282
     0
 72
     1
 77
     1
171
     1
175
     1
179
     1
273
     0
  0
XRECORD
  5
1FA
102
{ACAD_REACTORS
330
1F9
102
}
330
1F9
100
AcDbXrecord
280
     1
 70
     1
 90
429727718
  1
D62C5603-E3A1-4AEA-B7FB-FE5D8D0755AF
310
504B03040A0000080000CC70623B3DEE336E79000000790000001B0000006175746F6465736B2D64657369676E2D7061636B6167652E786D6C3C3F786D6C2076657273696F6E3D22312E302220656E636F64696E673D227574662D3822203F3E3C666F726D6174733E3C666F726D61743E687474703A2F2F736368656D612E
310
6175746F6465736B2E636F6D2F64657369676E2D7061636B6167652F323030393C2F666F726D61743E3C2F666F726D6174733E504B0304140006080800CC70623BD486FD9CA0000000F4000000130000005B436F6E74656E745F54797065735D2E786D6C7D8EC10E82300C865F65E91D8A1E8C310C0EEA1BF002731658846E
310
D98AC1B77784ABF1D8FE5FBFBF75BBCE937A534CCEB38643598122B6FEE978D0B0485F9C41B54DDD7D022595594E1A469170414C76A4D9A4D207E29CF43ECE46F218070CC6BECC4078ACAA135ACF422C856C0E68EA1BF5669944DDD7BCDE7B1F8E415D77AECB980613C2E4AC91FC167A2B244592486606FC29C8FD7F045B9A
310
EF7053A7E60B504B0304140006080800CC70623B853B8169EB0000007C01000008000000636F72652E786D6C8D90416EC3201045AF62CDB6C206821CC7C244919D9CA01740401C94182C03558F5F9C3852BBEB6A467FFE9B197D7EFC9E1EC5975982F5AE035262288C535E5B377690E21535501C055FBC8FBF6C503839990E
310
5619041F179FE64D52DE45E362569DD7661365082642A11EB9E920A89B99642953CC8E702F67A9EE7234257977194EC9EAE275C4EABCCF5EAD5940D4AC6F0E35A568B8F43562CD7046CD199FD07E60174276A7BE677B5EADB0E0D14EEFFB6A31321A0D82627C4084204C3F096B71DD52F6819B16635EADF63F509AF53FA164
310
5DDCD1EDDD17164090FCC8732078B56691CB33A85CD7DCC40F504B0304140006080800CC70623B55019EA25F0000007C00000007000000636E782E786D6C4DCB3B0E80201045D1AD90E915ED2CF8AC45050C11660C8261F98AB1B07AC9C97D42D718D865D3E909258CFD00CCE24AC6E326A164D74DC0B4128928FF32603847
310
2BA13128B1252AC747C6BAB984FC68F0B87FE8960A5C09FE86CFB69FBA01504B0304140006080800CC70623BDBABAAF470010000D40300000C0000006662782F636F72652E786D6CC553D16E823014FD95A6AF4B694182CC941A83FA05FB810A9511A125A5257EFE2E82712ECEB8A7F100CD39F7F69E734AF9FADC366850B6
310
AF8DCE7018308C942E4C59EB2AC3DE1D498AD15A706B8CFB56869196ADCAF00863C12B6B7C374385D14E6907A836A59A41D9F7CA615434B0C8705F7CAA5606D23BA8E84F41278B93AC54100640439DE0BDB320004D43C63716C7C399D30917DCFBBA9CD9BA8469F5B156168B24CED3F7248AC8769F27244EB73B92EED8862C
310
B7F13E0C179B3C8F979C8ECD82BBBABDAA2BAC924E9558448CBD9330242CFA08E3154B5651FCC6D215639C8EE5774DBE2B5F6CF2B5768B68963BB5F5588420E442FC700B1139D4CB01F450C1E918227C2E09DF070D8140C84E1E9AAB8F1340832A9CB13130A5F1376A908D57309505ECF2A0DF179C4E9D30F5B239B87E3823
310
7A79C6F31DE1A8A5AEC08474B03C7837EAE4938639B44E5932B833D2C6B6B279CDC613877FA26EE21F4A2A4C63EC7F29A2F301D1F9F7A0E37D145F504B0304140006080800CC70623B9C113CC27E0000009D0000000B0000006662782F636E782E786D6C4DCCDF0A83201C86E15B91DFB94BFB330DD428C8FB886521330DA7
310
6397BF1A1DECE883878F57749FCDA1B7892F1BBC047A23808C7F84D9FA55424E0BE6803A256208E9EF06C84F9B91703228B1C690F78B66B34CD9A5439DF5CF0BFBF65E35BCA1B8D6A5C6F540381E886698B5741C695F9503EBA150A2F8958E3DC3EA0B504B0304140006080800CC70623B7DF2F77C2A010000120200003100
310
00006662782F41393633353835312D344632462D344230382D423046372D3739314545314133324237412F636F72652E786D6C8D51DB8EC22014FC15C2939B0D2DB4B45643319AE817EC0F6041255A68B86CFCFC856D4D76DF7CE190393373060EDB3DC707F856CE6B6B7A480A0C81328395DA5C7B18C3057510EC3873D686
310
3F34088C18550F330C39BB3A1BA7051AAC09CA84841A2BD5020AEF55806078A44B0FFD7053A328440C89E1EFC52486BBB8AA8214A99D789CF9E05200300FC927E4FB4D5B375D43103D5527440FB843077C5AA3F5861C8F645F5787F59E95B390B318B55CE45AA638FAA2957BD7248B390B7A7CC51F9C124149C82B8C378810
310
84AB2F42B7B8DD56F413775B8C5999E9FF4471926F8AA236A1AE96B8B3CC434E5839373893369E1FAF30EA395917409EB7F26AF8801C171837A4A6AC9C89E9F9C9B1A58BA30FD6A5EF5DDDCF894B9AD9B6A59C957943A9FCAE2FD5BC4DFE03504B0304140006080800CC70623BAD7543B64E01000033030000300000006662
310
782F41393633353835312D344632462D344230382D423046372D3739314545314133324237412F636E782E786D6CD593CD6EC32010845F0571AD6CE3D48AD20813A9873E410FBD12D82434182C7EAAE6EDBB2424CD25871E7B41D6EC30B3FA84F9E67BB2E40B4234DE8DB46F1925E094D7C6ED479AD3AE5951B2113C789FEE
310
6C943839C1488B4C05DF079FE72A69D8C96C13AAD6B8631503449F83828872B949AC57D26200B826A308D316B4064D6E46FCDA41C05550DC9E483A00797BFD207EFB092A45DE9514C1BBD22178396BD39D891265658C238DEA00936C654E5E433CB65A26D9F6EDB5EBC14EBF49A45CB856E66048291F6939A9A81BB5C89177
310
38143CA680F4AA299D66A042CEB3354A2684DC9D8D178FE0D9B8B41CAAD720F880EE7EF93C0C18769E099ECC04D5A102C8049A8A05632F4DDF376CF1DE0F6BB65C2F8627B65A33C6BB62177CEBBDAD973006829F89F22E814B54F4BC2BE347F8AA8F681390B50FA73F804400B5F542E796F19FF974E7F78DB802FE05E20750
310
4B0304140006080800CC70623BE75B7789680500003C100000340000006662782F41393633353835312D344632462D344230382D423046372D3739314545314133324237412F6F626A656374732E786D6CAD575B8F9B3818FD2B887D06C22499CB8AA1CA655245D5B455A356FB305264C061D8018C6C3393D95FBFC7600890
310
A4CD5EF210B0B1BFEBF98E3F7B1FF6596ABC522E1296DF9BAE3D320D9A872C4AF2F8DE2CE5CEBA358D0FBEC719939D65A691938CDE9B6ADAF4BD98B3B2D05311DD91329583D9D5FC0F438434A7A611A644887B5384CF34233629258BA878B12322891DEFF6B66BD70BFB62634E8AE781D082709A4B588AF91C528CDA28B73F
310
1C998EEF39EABBEFA97FBD6A7C7E9553F9D3D79FE442923C3C523610337627CB87ABE99D359D4CC6D6E4FACAB5E6ABF9D2726FC6A3C5F56271377BB88362213924694B38DD99FE47C48627A1E7D49F5A8BB5E1A74C0A599ED3B0F21F1E56366B89112D681E218F0915D0D6F17AD41FBA2A369DCF6335D62ABBD39779D5DDD1
310
11D4D8DE3CBB96B2E04FB8202E41051754A1AA8E8F76B4C6DFE810B580B1547F4B84911149794252234D024EF8BBE963A95AE27B3D310A9D5C215C7960FAEE415ED75694C6AFB17BCACA5D99A60A9AA65F217B0BFC53292ACB92BF283FAD0D3621576592CB5BED907C2FA8E9DF794E35E97BEA31BED21FEB401ABB94C44839
310
DCACBF0E1C5DA8DA5B2F4DFFD32AD86F543D9E565E7056502E157C00AD2671CD534549AB752FCA9CDA00677A313F04E51B22FF19E57B300579E3C97EB29F682D92935CEC18CF901B7B54FD8C51F362B56FC72FE0B3C1EAE335EDCCBF5AEC39ADB17DC238973F804BA5E6F6BFE7AF1FB32E523BE9F3BD571418E3631DCA4D48
310
5250CF639223210A9446CA30052EDF057BD35F8329C1ECD84552BF0DC8D18BE7BCE23BFE6BD960AB4A7DE79923A103BEBD80F911CBAA2C60DB19B01CF164A5583B772EE6D3FFA56666CBCDA74DC97724A48F9A58967497E489C4D979006FD7A05E227A1EBDD0F737C623387A9C844D3709995625106D157315F8B8392CD4E0
310
A0B9A720C4BE9829CEF37EA1E13111214D53925356365ADA634861B52519DD27A00AEB808EAF0628E6F435519D446F45CF2C9CF5214F0A15B2F6D06B79DA3EE3CBF7F56780D2F4E7EF73A0F5E5B02A38D07DC852C6B7C1FBB6664213E0C39E3EBA7FF4E1AD23EA2829407C85E586727488B751B2DB9502BC7B228A3FD68B6E
310
A65A22397E690AA8D158D7E404EC8CDA235CC3B7D1898680131CEC2CDF2638C65196279577750F15884AEE19F94199155B92B13297978469D4F8D358DF0AEF7631E28DC8F0D9F437D5D39A83B2231A1D52D543813A824EF8D44BCFF2FA6A31BD1E8DAD87F1CCB526B3879935BF59CDADD5C37479BB1CDD4CA7B3556B516589
310
EF352754B706114D9C885EC9131DE6EFEB43D99AFE2391C2F958179413D7CFEF6B1B6DB1E7600F00DE6E5C67454A339A4BA2E0FBA85ED26F045D454F463DBFCE484C2F90F2E5E3666003662ED8F755951A7D1BECD5B30B550B2785C8E7320B7292A4838DDA71BBC863ED7613CAF659337A3354231D4FF4A182A54904C2898C
310
98B28C4AD0CE056CCF332A80986E571EE9DBC305BB5FEB7E509220A58D25CF042D712A806AC0AD0C657FDEF80D2D9CEAA2EE4D1C76F60BFE74219A06527D6F82DF6412526107381E55E353090704D085B52408A8913C4ED159D79BDA71BB4BC506F4831350EB6F975CD22D69BF7AC49B91A2C0A9DDA3D5CA36AD20FC478E37
310
E61844E2352865EBCB61A275A65283CAAA9DD27703B4102F5AF51EF5F573B75CBB5AD38BC845F7A49F82A0966A49C2E3EA5EA0ECD326CD965F1DB402C6FA8B51A4658C5C5E2EC9E214602E55810345408596591009A82E7E7FFACA19EEA299B14A0081A705CB3296EBC14CDF658DCD336EA6D1136881AAEB87B81AB9EE53D5
310
F5EB8BC8362082DA24122F98680A4E7930C01A0079749CEA14382A0783E5EBA5A10F8C098456A03D6A4AEB6BB881E2513747552A5DB22C7EDAF83BD5528081A365F7FF06504B0304140006080000CC70623B000000000000000000000000350000006662782F41393633353835312D344632462D344230382D423046372D37
310
39314545314133324237412F76657274696365732E62696E504B0304140006080800CC70623BF270F1330600000004000000360000006662782F41393633353835312D344632462D344230382D423046372D3739314545314133324237412F747269616E676C65732E62696E636660600000504B0304140006080000CC7062
310
3B000000000000000000000000370000006662782F41393633353835312D344632462D344230382D423046372D3739314545314133324237412F617474726962757465732E62696E504B0304140006080800CC70623B08DA0BD19000000041010000360000006662782F41393633353835312D344632462D344230382D4230
310
46372D3739314545314133324237412F6469726563746F72792E786D6C858F410AC3201045AF22B36F53E9A60B35CBEEBAE80D244E44489C6234F4F835464A48035D0DF398FF9F8AF63D0E6CC63039F212F8F9020C7D47C6792B21C5FE7403D62A1188E2E60C98D7234A5830286103A55745067B9D86B8A3CF9C7F90C11DE6
310
07FB144396D7B6A82D282E9A152AD114D5EF2CB866EEE831B8EEA07A7BB5A8D7D61A2BAAEB7FD5F70921FF497D00504B0304140006080800CC70623BEDD1DC58FD000000A00100003B0000006662782F41393633353835312D344632462D344230382D423046372D3739314545314133324237412F7265736F75726365732F
310
636F72652E786D6C8D504B6E833010BD0A9A6D65B00922041947112427E8052C33A156828DFCA97AFC9A40A576D7CDCCE87D344F8F9FBFE667F689CE6B6B3A6039850C8DB2A336530731DC4903D95970676DF82583CCC8193B5861107C72362E3BA4AC096842428D1D7107A5F7182053CF7474E0D507CE32973124857FE48B
310
540F3961CEF244279DE03EB81420DB9EAC1384436FA353E879B1B182C7A8C75DA3C7F453DF353A1075D537A7BA6464B8F535A99AE14A9A2BBD90E350DD183B5CFABE3AF262350B1EF4FC9351399401471025A527C218A1E53BAB5A5AB765F5469B96525EACF23FA6B88CFF34456DC2A1DCE36E360F82A5202F42F062ED2BAD
310
579969AFDD8A6F504B010214000A0000080000CC70623B3DEE336E79000000790000001B00000000000000000000000000000000006175746F6465736B2D64657369676E2D7061636B6167652E786D6C504B01021400140006080800CC70623BD486FD9CA0000000F40000001300000000000000000000000000B20000005B
310
436F6E74656E745F54797065735D2E786D6C504B01021400140006080800CC70623B853B8169EB0000007C010000080000000000000000000000000083010000636F72652E786D6C504B01021400140006080800CC70623B55019EA25F0000007C000000070000000000000000000000000094020000636E782E786D6C504B
310
01021400140006080800CC70623BDBABAAF470010000D40300000C00000000000000000000000000180300006662782F636F72652E786D6C504B01021400140006080800CC70623B9C113CC27E0000009D0000000B00000000000000000000000000B20400006662782F636E782E786D6C504B01021400140006080800CC70
310
623B7DF2F77C2A010000120200003100000000000000000000000000590500006662782F41393633353835312D344632462D344230382D423046372D3739314545314133324237412F636F72652E786D6C504B01021400140006080800CC70623BAD7543B64E010000330300003000000000000000000000000000D2060000
310
6662782F41393633353835312D344632462D344230382D423046372D3739314545314133324237412F636E782E786D6C504B01021400140006080800CC70623BE75B7789680500003C10000034000000000000000000000000006E0800006662782F41393633353835312D344632462D344230382D423046372D3739314545
310
314133324237412F6F626A656374732E786D6C504B01021400140006080000CC70623B0000000000000000000000003500000000000000000000000000280E00006662782F41393633353835312D344632462D344230382D423046372D3739314545314133324237412F76657274696365732E62696E504B01021400140006
310
080800CC70623BF270F133060000000400000036000000000000000000000000007B0E00006662782F41393633353835312D344632462D344230382D423046372D3739314545314133324237412F747269616E676C65732E62696E504B01021400140006080000CC70623B0000000000000000000000003700000000000000
310
000000000000D50E00006662782F41393633353835312D344632462D344230382D423046372D3739314545314133324237412F617474726962757465732E62696E504B01021400140006080800CC70623B08DA0BD1900000004101000036000000000000000000000000002A0F00006662782F41393633353835312D344632
310
462D344230382D423046372D3739314545314133324237412F6469726563746F72792E786D6C504B01021400140006080800CC70623BEDD1DC58FD000000A00100003B000000000000000000000000000E1000006662782F41393633353835312D344632462D344230382D423046372D3739314545314133324237412F7265
310
736F75726365732F636F72652E786D6C504B0506000000000E000E0080040000641100000000
  0
XRECORD
  5
2037
102
{ACAD_REACTORS
330
1F7
102
}
330
1F7
100
AcDbXrecord
280
     1
102
MATERIAL
148
0.0
149
0.0
149
0.0
 93
        0
 94
       63
282
     0
 72
     1
 77
     1
171
     1
175
     1
179
     1
273
     0
  0
XRECORD
  5
1F8
102
{ACAD_REACTORS
330
1F7
102
}
330
1F7
100
AcDbXrecord
280
     1
 70
     1
 90
429727718
  1
30362254-06B7-45E0-A893-8CFA70E3D6BC
310
504B03040A0000080000CC70623B3DEE336E79000000790000001B0000006175746F6465736B2D64657369676E2D7061636B6167652E786D6C3C3F786D6C2076657273696F6E3D22312E302220656E636F64696E673D227574662D3822203F3E3C666F726D6174733E3C666F726D61743E687474703A2F2F736368656D612E
310
6175746F6465736B2E636F6D2F64657369676E2D7061636B6167652F323030393C2F666F726D61743E3C2F666F726D6174733E504B0304140006080800CC70623BD486FD9CA0000000F4000000130000005B436F6E74656E745F54797065735D2E786D6C7D8EC10E82300C865F65E91D8A1E8C310C0EEA1BF002731658846E
310
D98AC1B77784ABF1D8FE5FBFBF75BBCE937A534CCEB38643598122B6FEE978D0B0485F9C41B54DDD7D022595594E1A469170414C76A4D9A4D207E29CF43ECE46F218070CC6BECC4078ACAA135ACF422C856C0E68EA1BF5669944DDD7BCDE7B1F8E415D77AECB980613C2E4AC91FC167A2B244592486606FC29C8FD7F045B9A
310
EF7053A7E60B504B0304140006080800CC70623B1EC5D7A3EB0000007C01000008000000636F72652E786D6C8D90416EC3201045AF82665B6103C6756C6122AB4D4ED00B204C5C94182C03558F5F9C3852BBEB6A467FFE9B197D71FC9E6FE8CBACC17AD7032D0820E3B41FAD9B7A48F1820F808E52ACDEC75F36404ECDA687
310
4D0629A6D5A76597B477D1B89855E747B38B2A041301E95B6E7A08FAD3CCAA50296647B8168BD2573599823EBB0CA76447F43862C7BCCF5EAC59410E4DDD9C7973C2755553CCCFA4C603E3040F1565ED3B1FDE4E432BCA0D9622DAF9795FAF464533826484B498524CD807E51D79ED187F21878E10516EF63F505AC67F42C9
310
BA58B1FDDD071640D2FCC87D2045B96591CB3DA85CB7DCE40F504B0304140006080800CC70623B55019EA25F0000007C00000007000000636E782E786D6C4DCB3B0E80201045D1AD90E915ED2CF8AC45050C11660C8261F98AB1B07AC9C97D42D718D865D3E909258CFD00CCE24AC6E326A164D74DC0B4128928FF32603847
310
2BA13128B1252AC747C6BAB984FC68F0B87FE8960A5C09FE86CFB69FBA01504B0304140006080800CC70623B8C9102E971010000D40300000C0000006662782F636F72652E786D6CC5535B6E833010BC8AE5DF0A6C08340F1947A84D4ED00B38C6A128602363A31CBFCB234A53A551FA553EC09AD9F5CE8C31DB9E9B1AF5CA
310
7695D1198E428A91D2D214952E33ECDD315861B4E5CC1AE3BE9561A445A3323CC098B3D21ADFCE9034DA29ED00D5A6503328BA4E398C640D8B0C77F253352214DE4145770A5B214FA2546114020D759C75CE8200340D19DE981F0F6746269C33EFAB6266AB02A655C74A59CCF365BADC27CB5D902ED22848F6340DF238A141
310
BE88E2F57B92BFEDF23523433367AE6A2EEAA455C2A902F398D2751045018D3FA264435F3771F242571B4A1919CA6F9A7C5B3CD9E42BED16F12C776AEB308F40C848FC700B1139D4891EF410CEC810227CC6846F8386402064270EF5C5C709A05E49676C024C61FC95EA45ED154CA5211D1FF4FB8291A913A68E9B83EBBB33
310
E2A7673CDE118E5AE8124C0807CB8377834E366998436B950D7A7746DAD846D4CFD978E0F04FD455FC5D49D2D4C6FE9722321F10997F0F32DC47FE05504B0304140006080800CC70623BFFEA85907E0000009D0000000B0000006662782F636E782E786D6C4DCCD10A83201886E15B91FFDC95D95A811AB6F23E625948A6C3
310
E9D8E5AF46073BFAE0E1E365ED67B3E8ADC3CB78C7815C7240DA3DFC64DCC221C519D7805AC182F7F1EF06C88D9BE6703008B6049F9E274D7A1E938DBB5AE3D6131B2589BA0D3D965551E0B2EA732C9B9A624AAEB41E3A557677029960D9AFB4EF11165F504B0304140006080800CC70623B4FEEA4082C0100001202000031
310
0000006662782F39464131463745442D413632322D343644302D413938332D3331353338454246344243312F636F72652E786D6C8D515B6EC32010BC0AE2AB55850DD871ED0813254D72825EC00192A2C460F1A872FC42ED48ED5F7E00CDCECCCEB26C731F6FE05B39AFADE921293004CA082BB5B9F43086336A21D870E6AC
310
0D7F68109861543DCC30E4ECE26C9C164858139409093556AA051CBC570102714B8F1E7AF1A5C6A11862480C7F2DA6415C878B2A4891CA89C7990F2E050073937C42DE1DB7E4F87ED8A36D4329AA9B3D46DBAEAD504556557BD81DEBDD0761E52CE42C462D17B996298E3E6BE59E35C962CE821E1FF18553435012728A7187
310
0841987E927A8D9B35ADDF70BBC6989599FE4F1427F9A4286A132ABAC49D651EF234CD5CE04CDA78BA3DC2A8FB645D00B9DF8B57E215725C60BCA2A463E54C4CE327C7A65E1C7DB02E7DEFCBF594B864C5CA6CDBD49C957943E9FA5D5FBAF336F90F504B0304140006080800CC70623BAD7543B64E01000033030000300000
310
006662782F39464131463745442D413632322D343644302D413938332D3331353338454246344243312F636E782E786D6CD593CD6EC32010845F0571AD6CE3D48AD20813A9873E410FBD12D82434182C7EAAE6EDBB2424CD25871E7B41D6EC30B3FA84F9E67BB2E40B4234DE8DB46F1925E094D7C6ED479AD3AE5951B2113C
310
789FEE6C943839C1488B4C05DF079FE72A69D8C96C13AAD6B8631503449F83828872B949AC57D26200B826A308D316B4064D6E46FCDA41C05550DC9E483A00797BFD207EFB092A45DE9514C1BBD22178396BD39D891265658C238DEA00936C654E5E433CB65A26D9F6EDB5EBC14EBF49A45CB856E66048291F6939A9A81BB5
310
C8917738143CA680F4AA299D66A042CEB3354A2684DC9D8D178FE0D9B8B41CAAD720F880EE7EF93C0C18769E099ECC04D5A102C8049A8A05632F4DDF376CF1DE0F6BB65C2F8627B65A33C6BB62177CEBBDAD973006829F89F22E814B54F4BC2BE347F8AA8F681390B50FA73F804400B5F542E796F19FF974E7F78DB802FE05
310
E207504B0304140006080800CC70623B16AB87BA640500003C100000340000006662782F39464131463745442D413632322D343644302D413938332D3331353338454246344243312F6F626A656374732E786D6CAD575B6FA33818FD2B887DE6924B3BED8A326A92B68A663B534DD4D13E548A0C38942D60649B369D5FBFC7
310
600890A493BDE42160637FD7F31D7FF63E6FB3D478A55C242CBF3247B66B1A340F5994E4F19559CA8D75611A9F7D8F33263BCB4C232719BD32D5B4E97B316765A1A722BA21652A07B3B7B33F0D11D29C9A46981221AE4C113ED38CD8A4942CA2E2C58E882476BCD9DA23BB5ED8171B73523C0F841684D35CC252CCE79062D4
310
468DFA43D7747CCF51DF7D4FFDEB5593E3AB9CCA9FBEFE241792E4E19EB28198C968BAB8199F5D5A67D3E9C49A9E8F47D6EC76B6B0469F26EEFC7C3EBFBCBEB98462213924694B38DD98FE1D62C393D073EA4FADC5DAF04326852CCF6958F90F0F2B9BB5C48816348F90C7840A68EB78EDF68723159BCEE7891A6B95DDE9D3
310
BCEAEEE8086A6C6F9E5D4B59F0175C10A7A0820BAA5055C7473B5AE3CFDD452D602CD5DF12616444529E90D448938013FE6EFA58AA96F85E4F8C42275708571E98FE6827AF6B2B4AE3D7D83D64E5A64C53054DD3AF90BD06FEA9149565C94FCA0F6B834DC85599E4F2423B24DF0B6AFA979E534DFA9E7A4CC6FA631D486393
310
921829879BF5D781A373557BCB85E97FB90DB62B558F8795179C15944B051F40AB495CF35451D26A4727654E6D8033BD98EF82F21D91FF8AF2DD9982BCF1643BDD4EB516C9492E368C67C88DED563FC36D5EACF66DFF057C3658BDBFA69DF9578B3DA735B64F18C7F20770A9D45CFCF7FCF563D6456A277DBEF78A02637CA2
310
43B90A490AEAB94F72244481D24819A6C0E59B606BFA4B3025981DBB48EAB701D97BF19C577CC77F2D1B6C55A9EF3C732474C0B727303F625995056C3B02963D9EAC146BE78EC5FCEC7FA999EBC5EACBAAE41B12D27B4D2C0BBA49F244E2ECDC81B76B502F113D8F5EE8FB1BE3111CDD4FC2AA9B844CAB1288B68AB90A7CDC
310
1C166AB0D3DC5310625FCC14E779BFD0709F8890A629C9292B1B2DED31A4B0DA928CEE135085754027E3018A397D4D5427D15BD1330B677DC8934285AC3DF45A9EB68FF8F2B8FC0A509AFEECFD0FF2DE25CC6047F7214B195F07EFEB9A094D800F7BFAE8FED187B78EA8A3A400F115961BCAD1215E47C966530AF0EE8128FE
310
58CEBB996A8964FFA529A046635D9353B0336A8F700DDF46271A024E70B0B37C9DE01847591E54DED53D54202AB947E4076556AC49C6CA5C9E1226B7F1A7B1BE15DEED62C41B91E1B3E9AFAAA735036547343A925075041DF0A9979E893B391F8FCFA6967B3EFB644DCF6E5CEBFAE272625DCC6FAF3FB93793C5F90CE1EF57
310
407342756B10D1C489E8953CD1617E5CEECAD6F4EF8914CE5D5D504E5C3F1F9736DA62CFC11E00BCDDB8CC8A9466349744C1F75EBDA4DF09BA8A9E8C7A7E9991989E20E5DBDD6A6003664ED8F7A04A8DBE0DF6EAD9B9AA858342E47399053949D2C146EDB85DE4B176BB0965FBAC19BD19AA918E27FA50C1D22402E144464C
310
59462568E704B6E71915404CB72B8FF4EDE184DDAF753F284990D2C6926782963815403548A70C657FDEF80D2D9CEAA2AE4C1C76F60BFE74219A06527D6582DF6412526107381E55E353090704D085B52408D0933C4ED159D79BDA71BB4BC506F4831350EB6F979CD22D69BF7AC49B91A2C0A9DDA3D5CA36AD20FC478E37E6
310
1844E2352865EBCB6EA275A652E3836BE04EFB400BF1A2556F515F1FBB35B2AB35BD889C744FFA1004B5544B121E57F70215746DD2F5E2C1412B602CBF19455AC6C8E5E9922C4E01E65215385004546899059180EAFCF7A707CE7017CD8CDB0410789AB32C63B91E5CEBBBACB17AC6CD347A022D5075FD106377347AAABA7E
310
7D11590744509B44E205134DC1290F06580320F78E537D3D73540E06CB970B431F185308AD40BBD794D6D77003C5A36E8EAA54BA64597CD8F83BD552A080A365F7FF06504B0304140006080000CC70623B000000000000000000000000350000006662782F39464131463745442D413632322D343644302D413938332D3331
310
353338454246344243312F76657274696365732E62696E504B0304140006080800CC70623BF270F1330600000004000000360000006662782F39464131463745442D413632322D343644302D413938332D3331353338454246344243312F747269616E676C65732E62696E636660600000504B0304140006080000CC70623B
310
000000000000000000000000370000006662782F39464131463745442D413632322D343644302D413938332D3331353338454246344243312F617474726962757465732E62696E504B0304140006080800CC70623B08DA0BD19000000041010000360000006662782F39464131463745442D413632322D343644302D413938
310
332D3331353338454246344243312F6469726563746F72792E786D6C858F410AC3201045AF22B36F53E9A60B35CBEEBAE80D244E44489C6234F4F835464A48035D0DF398FF9F8AF63D0E6CC63039F212F8F9020C7D47C6792B21C5FE7403D62A1188E2E60C98D7234A5830286103A55745067B9D86B8A3CF9C7F90C11DE607
310
FB144396D7B6A82D282E9A152AD114D5EF2CB866EEE831B8EEA07A7BB5A8D7D61A2BAAEB7FD5F70921FF497D00504B0304140006080800CC70623B0D6EF93BFE000000A00100003B0000006662782F39464131463745442D413632322D343644302D413938332D3331353338454246344243312F7265736F75726365732F63
310
6F72652E786D6C8D50596E833010BD0A9ADFCA60B334011947A8694ED00B586642AC041B79A97AFC9A40A5F6AF3F33A3B7689E1E3F7DCD8FEC139DD7D6F4C0720A191A65476DA61E62B892236427C19DB5E1970C322367EC618541F0C9D9B8EC90B226A009093576C41D94DE63804C3DD2D18357379C652E63480A7FCF17A9
310
EE72C29CE5894E3AC17D702940B63D59270887DE46A7D0F36263058F518FBB468FE9A7BE6A7420864373B8D4873369AA8691FA421B3294352543C5CAF65C0F6FEF43CB8BD52C78D0F34F46E550061C419494B6843142CB0F5677F4B52BEB177AEC28E5C52AFF638ACBF84F53D42654E51E77B379102C05791282176B5F693D
310
CB4C7BED567C03504B010214000A0000080000CC70623B3DEE336E79000000790000001B00000000000000000000000000000000006175746F6465736B2D64657369676E2D7061636B6167652E786D6C504B01021400140006080800CC70623BD486FD9CA0000000F40000001300000000000000000000000000B20000005B
310
436F6E74656E745F54797065735D2E786D6C504B01021400140006080800CC70623B1EC5D7A3EB0000007C010000080000000000000000000000000083010000636F72652E786D6C504B01021400140006080800CC70623B55019EA25F0000007C000000070000000000000000000000000094020000636E782E786D6C504B
310
01021400140006080800CC70623B8C9102E971010000D40300000C00000000000000000000000000180300006662782F636F72652E786D6C504B01021400140006080800CC70623BFFEA85907E0000009D0000000B00000000000000000000000000B30400006662782F636E782E786D6C504B01021400140006080800CC70
310
623B4FEEA4082C0100001202000031000000000000000000000000005A0500006662782F39464131463745442D413632322D343644302D413938332D3331353338454246344243312F636F72652E786D6C504B01021400140006080800CC70623BAD7543B64E010000330300003000000000000000000000000000D5060000
310
6662782F39464131463745442D413632322D343644302D413938332D3331353338454246344243312F636E782E786D6C504B01021400140006080800CC70623B16AB87BA640500003C1000003400000000000000000000000000710800006662782F39464131463745442D413632322D343644302D413938332D3331353338
310
454246344243312F6F626A656374732E786D6C504B01021400140006080000CC70623B0000000000000000000000003500000000000000000000000000270E00006662782F39464131463745442D413632322D343644302D413938332D3331353338454246344243312F76657274696365732E62696E504B01021400140006
310
080800CC70623BF270F133060000000400000036000000000000000000000000007A0E00006662782F39464131463745442D413632322D343644302D413938332D3331353338454246344243312F747269616E676C65732E62696E504B01021400140006080000CC70623B0000000000000000000000003700000000000000
310
000000000000D40E00006662782F39464131463745442D413632322D343644302D413938332D3331353338454246344243312F617474726962757465732E62696E504B01021400140006080800CC70623B08DA0BD190000000410100003600000000000000000000000000290F00006662782F39464131463745442D413632
310
322D343644302D413938332D3331353338454246344243312F6469726563746F72792E786D6C504B01021400140006080800CC70623B0D6EF93BFE000000A00100003B000000000000000000000000000D1000006662782F39464131463745442D413632322D343644302D413938332D3331353338454246344243312F7265
310
736F75726365732F636F72652E786D6C504B0506000000000E000E0080040000641100000000
  0
XRECORD
  5
2039
102
{ACAD_REACTORS
330
173
102
}
330
173
100
AcDbXrecord
280
     1
102
MATERIAL
148
0.0
149
0.0
149
0.0
 93
        0
 94
       63
282
     0
 72
     1
 77
     1
171
     1
175
     1
179
     1
273
     0
  0
XRECORD
  5
175
102
{ACAD_REACTORS
330
173
102
}
330
173
100
AcDbXrecord
280
     1
270
     1
271
     1
  0
XRECORD
  5
174
102
{ACAD_REACTORS
330
173
102
}
330
173
100
AcDbXrecord
280
     1
270
     1
271
     1
  0
XRECORD
  5
1FB
102
{ACAD_REACTORS
330
173
102
}
330
173
100
AcDbXrecord
280
     1
 70
     0
 90
1673772943
  1
ECE7A1D2-D628-4531-984C-D00F80459256
310
504B03040A0000080000CC70623B3DEE336E79000000790000001B0000006175746F6465736B2D64657369676E2D7061636B6167652E786D6C3C3F786D6C2076657273696F6E3D22312E302220656E636F64696E673D227574662D3822203F3E3C666F726D6174733E3C666F726D61743E687474703A2F2F736368656D612E
310
6175746F6465736B2E636F6D2F64657369676E2D7061636B6167652F323030393C2F666F726D61743E3C2F666F726D6174733E504B0304140006080800CC70623BD486FD9CA0000000F4000000130000005B436F6E74656E745F54797065735D2E786D6C7D8EC10E82300C865F65E91D8A1E8C310C0EEA1BF002731658846E
310
D98AC1B77784ABF1D8FE5FBFBF75BBCE937A534CCEB38643598122B6FEE978D0B0485F9C41B54DDD7D022595594E1A469170414C76A4D9A4D207E29CF43ECE46F218070CC6BECC4078ACAA135ACF422C856C0E68EA1BF5669944DDD7BCDE7B1F8E415D77AECB980613C2E4AC91FC167A2B244592486606FC29C8FD7F045B9A
310
EF7053A7E60B504B0304140006080800CC70623BD9DDAED0EC0000007C01000008000000636F72652E786D6C8D90416EC3201045AF82665B61836D9CD8C2444DD39CA01740405C94182C03558F5F9C3852BBEB6A467FFE9B197D7EF89E6EE8CB2CC17A37002D0820E394D7D68D03A478C17B4007C117EFE32F1B20272733C0
310
2A83E0E3E2D3BC49CABB685CCCAAF3DA6CA20CC14440EA969B0182FA34932C648AD911AEC52CD5558EA6A0CF2EC329598D1E47ACCEFBECC59A050463A7EA5833865FEBDD0E37353BE3EE8DBDE3F6786A48D375FBF6CC78B9C282473B3DEFABC5C86834888A900E538A49F5419B9EB47DD5BC907D4F082F57FB1F28CDFA9F50
310
B22ED6D5F6EE030B20687EE43E10BC5CB3C8E51E54AE6B6EE207504B0304140006080800CC70623B55019EA25F0000007C00000007000000636E782E786D6C4DCB3B0E80201045D1AD90E915ED2CF8AC45050C11660C8261F98AB1B07AC9C97D42D718D865D3E909258CFD00CCE24AC6E326A164D74DC0B4128928FF326038
310
472BA13128B1252AC747C6BAB984FC68F0B87FE8960A5C09FE86CFB69FBA01504B0304140006080800CC70623BA24EB22D72010000D40300000C0000006662782F636F72652E786D6CC5535B6E833010BC8AE5DF0A6C5E49888CA3A6694ED00B38E05014B091B1518EDFE511A5A9D228FD2A1F60CDEC7A67C6986DCE4D8D7A
310
69BA4AAB0C073EC548AA5C17952A33ECECD15B61B4E1CC686DBF9561A44423333CC098B3D268D7CE50AE9595CA02AA74216750749DB418E5352C32DCE59FB211BE70162ABA93DF8AFC244AE9073ED050C759670D0840D390E18DF9F1706664C23973AE2A66B62A605A75ACA4C13C4976E1364A12EF355A2EBD384AF65EFA96
310
BC7B8BED2EA6719AAE16FB8491A199335B351775B991C2CA02F390D2D40B028F861F41BCA68B7518BFD0D59A524686F29B26D7164F36B94AD9289CE54E6D1DE6010819891F6E21228B3AD1831EC219194284CF98F06DD01008846CC5A1BEF83801D4CBDC6A1303536877A57A513B0953A94FC707FDBE6064EA84A9E3E6E0FA
310
EE8CF0E9198F7784A316AA0413C2C2F2E0ECA0934D1AE6D05A69BCDE9E91D2A611F573361E38FC1375157F5752AE6B6DFE4B11990F88CCBF0719EE23FF02504B0304140006080800CC70623B408A7D3B7C0000009D0000000B0000006662782F636E782E786D6C4DCCD10A83201886E15B91FFDC552A92A0064DBC8F581632
310
D3703A76F9ABD1C18E3E78F878E5F0D9027ABBFCF2292AE86E2D20171F69F6715550CB827B40839639A5F2770314A7CD293819B45C73AAFB45B35BA61ACAA1C1C7E7855C58C15BC331339661262CC762340413D68D77DA5B42298546CBE6573AF60CEB2F504B0304140006080800CC70623B449FB9BD290100001202000031
310
0000006662782F36394639363044362D344446342D343946362D394244322D3234314243333846323333332F636F72652E786D6C8D515B6EC32010BC0AE22B55850D98B871848994463E412FE002495162B07854397EA176A4F62F3F2C9A9D991D587EB84F37F0AD7D30CEF6905418026DA553C65E7A98E219ED203808EE9D
310
8B7F6810D871D23D2C3014FCE25D9A57483A1BB58D19B54EE9151C43D0110279CB971E06F9A5A7B11A53CC8C70ADE6515EC78BAE4895DB992778883E0700CB907242D17643D7E2538BD869608875438BBAE38922CAC8F1BDD90DB4691A5E2F42C153326A951B95E398B3D1FE599322163C9AE9115F7A3D46ADA0A018778810
310
84E907617BDCEE297BC5BB3DC6BC2EF47FA234AB2745C9D8D8D035EE220B50105E2F0DC1954B9FB747187D9F9D8FA0CCDB042D5FA0C015C65B42DF78BD10F3F3B363CB56C7109DCFDFBBB97E662ED92EB62D13BC2E1BCAE5777DB9966D8A1F504B0304140006080800CC70623BAD7543B64E01000033030000300000006662
310
782F36394639363044362D344446342D343946362D394244322D3234314243333846323333332F636E782E786D6CD593CD6EC32010845F0571AD6CE3D48AD20813A9873E410FBD12D82434182C7EAAE6EDBB2424CD25871E7B41D6EC30B3FA84F9E67BB2E40B4234DE8DB46F1925E094D7C6ED479AD3AE5951B2113C789FEE
310
6C943839C1488B4C05DF079FE72A69D8C96C13AAD6B8631503449F83828872B949AC57D26200B826A308D316B4064D6E46FCDA41C05550DC9E483A00797BFD207EFB092A45DE9514C1BBD22178396BD39D891265658C238DEA00936C654E5E433CB65A26D9F6EDB5EBC14EBF49A45CB856E66048291F6939A9A81BB5C89177
310
38143CA680F4AA299D66A042CEB3354A2684DC9D8D178FE0D9B8B41CAAD720F880EE7EF93C0C18769E099ECC04D5A102C8049A8A05632F4DDF376CF1DE0F6BB65C2F8627B65A33C6BB62177CEBBDAD973006829F89F22E814B54F4BC2BE347F8AA8F681390B50FA73F804400B5F542E796F19FF974E7F78DB802FE05E20750
310
4B0304140006080800CC70623B8D05915C650500003B100000340000006662782F36394639363044362D344446342D343946362D394244322D3234314243333846323333332F6F626A656374732E786D6CAD575B6FA33814FE2B887D06429276DA1565D4266D158D3A339A6846FB502932E050B66023DB74D2FDF5FB190C01
310
9276B2973C046C8ECFF53B17071F77456EBD502133CEAE6CDF9DD81665314F32965ED995DA3A17B6F5310C04E7AA47665B8C14F4CAD6DB7618A48257A5D94AE89654B91AEDDEDDFC61C998326A5B714EA4BCB265FC440BE2924AF184CA6737218AB8E976E7FA6E4338649B0A523E8D98964450A6A029F619B8588D52FE7039
310
B1BD30F0F4F730D0FF866AF6369557DB33949F31A9088B0F848DD8CCFCF9F2767A76E99CCDE733677E3EF59D9BBB9BA5E37F984D16E78BC5E5F5ED25044B25C0C96822E8D60EEFE11B91C581D77CEA34368A1F5329E68CD1B8B61F16D63A1B8E092D294B10C78C4A48EB593D192E7DED9BDEE7995E1B91FDEDD3ACEA9FE831
310
6A756F9F7D4D79F4274C90A7A04248AA51D5F8C718DAE06FB2F75AC4796EBE65D22A88A22223B995679120E2D50E41AA49C260C046A35368846B0BECD0DFF3EBEB8AD4F835768F69B9ADF25C43D30E6B646F807FAA64AD59F61715C7A54127C4AACA98BA3006A9D792DAE165E0D59B61A01FB3A9F9D838D2DAE62445C86166
310
F37564E842E7DE6A69879FEEA2DD5AE7E371E1A5E025154AC307D06A03D73EB5978C58FFA4C8E9033066E0F3BD53BEC1F39F91BE7B55103791EDE6BBB991A2046172CB4581D8B893FA674DDA17A77B3B7C413D1B511FD2743BFF8A38F03A658705E3ADF8015C3A3417FF3D7E439FF591DA0B5F18BC20C1B8981957AE6392A3
310
F43C640C01D1A0B4728E2DD4F26DB4B3C3152A252A3B4E913CEC1C72F012782FF88EFF8637AA552DBEF76408E8A8DE9E50F9E1CB3A2DA0DB1B6039A893B56063DC5B3E3FFB5F72E67AB9FEB4AEC496C4F4C1149625DD662C53E89D7BF0F6151A046260D1337DFDC94502430F83B0EE07A130A224BCAD7DAE1D9FB6CD422FF6
310
920702629C4BB9AE79C12F243C6432A6794E18E5552BA56B431AAB5D91317302B2B071E86C3A42B1A02F999E24061403B5D0EB639195DA655DD3EBEAB4FB862DDF579F014AD0E73C22F99E28DA57FB98E75C6CA2D74D53086D600F4786E0FE3144B771A8A7B900F03594DB8A633CBC49B2EDB69228BB479CF863B5E807AAAB
310
23872F6DFEB4129B949CA33823F58830E86D65621E10047D9DB34D862E8EAC3C2ABC2F7B2C40D67CDFE01F5545B92105AF983AC54D93D69E56FB8E797F88913F898A9FEC705D3F9D1B54EC8426FB500D40A03BD0119B06E1B95DDC7EB8F6975367793EBD70E66733DFB9BC982F9CE564727731999F5D4ECFCE3B8D6A4DC2A0
310
6D50FD148437D110834A64C6CDDF57FBACB5C307A2A477DFE4939736CFEF2B175371E0E10CF0DD1D5C15654E0BCA14D1E87DD02FF93782A162C0A3D95F1524A52770F972BF1EE9809D13CE7DD599467F8ECE9ADD85CE85A34CD45355448C64F9E8A031DC2D596ACC6E5DD93D9B82DE2EF5CAF81363A8E47996A0DE24564A79
310
4115AACE09C55E14540231FDA13C319787134EBF34E3A022514E5B4D9E0826E25C02D5805B15ABE1BEF51B26383D445DD9E875EE33FE4C22DA16427D65A3BCA92CA6D28DD01DF5DC53330704308475351050232CCD31583787BA75774AFB06E5070DD0C8EF484E19968C5D83BA5B90B244D31E54D55A372320FE4786B7EA58
310
44E135AA5467CB7EA333A61683CC6A8C3257034C10CF46F40EF9F5BE59BE5BD30C3C72D235E95D10345C1D45445A5F0BB47E46A5EBE5570F9380B5FA629579952296A773720405982B9DE04011506178964401AA8BDF1FBF0A8EAB6861DD6580C0E38217056766716DAEB2D6FA0917D3E4116581EADB879C4E7CFFB11EFACD
310
3D641311495D92C8676CB409A72D18610D803CE8A626049E8EC1887CB5B44CC39883690DDA8399B4B9855B481E7D71D4A9D22F96E5BB73BF5793020C02137BF837504B0304140006080000CC70623B000000000000000000000000350000006662782F36394639363044362D344446342D343946362D394244322D32343142
310
43333846323333332F76657274696365732E62696E504B0304140006080800CC70623BF270F1330600000004000000360000006662782F36394639363044362D344446342D343946362D394244322D3234314243333846323333332F747269616E676C65732E62696E636660600000504B0304140006080000CC70623B0000
310
00000000000000000000370000006662782F36394639363044362D344446342D343946362D394244322D3234314243333846323333332F617474726962757465732E62696E504B0304140006080800CC70623B08DA0BD19000000041010000360000006662782F36394639363044362D344446342D343946362D394244322D
310
3234314243333846323333332F6469726563746F72792E786D6C858F410AC3201045AF22B36F53E9A60B35CBEEBAE80D244E44489C6234F4F835464A48035D0DF398FF9F8AF63D0E6CC63039F212F8F9020C7D47C6792B21C5FE7403D62A1188E2E60C98D7234A5830286103A55745067B9D86B8A3CF9C7F90C11DE607FB14
310
4396D7B6A82D282E9A152AD114D5EF2CB866EEE831B8EEA07A7BB5A8D7D61A2BAAEB7FD5F70921FF497D00504B0304140006080800CC70623BCA768048FE000000A00100003B0000006662782F36394639363044362D344446342D343946362D394244322D3234314243333846323333332F7265736F75726365732F636F72
310
652E786D6C8D50596E833010BD0A9ADFCA60D600328E9AA639412F609909B1126CE4A5EAF16B0295DABFFECC8CDEA2797AECF8353F924FB44E193D409E5248504B332A3D0D10FC95B4901C39B3C6F85F3248B49871801506CE266BC2B243D2688FDA47549B11775038871E12F988C7004EDE7016A9083E2ADC3D5D84BC8B09
310
D33C8D74D471E6BC8D0192EDC93A815B742658898E651BCB59086ADC356A8C3FD555A1055ED7E7E254D615792D0F075295F585746FF53B694EE78A565DD736979A65AB9933AFE69F8CD2A2F038022F28ED489E135A7CE4554F9BBEA85E68DB53CAB255FEC71496F19FA6A0B42F8B3DEE6673C0F318E4497096AD7DC5F52C33
310
EEB55BFE0D504B010214000A0000080000CC70623B3DEE336E79000000790000001B00000000000000000000000000000000006175746F6465736B2D64657369676E2D7061636B6167652E786D6C504B01021400140006080800CC70623BD486FD9CA0000000F40000001300000000000000000000000000B20000005B436F
310
6E74656E745F54797065735D2E786D6C504B01021400140006080800CC70623BD9DDAED0EC0000007C010000080000000000000000000000000083010000636F72652E786D6C504B01021400140006080800CC70623B55019EA25F0000007C000000070000000000000000000000000095020000636E782E786D6C504B0102
310
1400140006080800CC70623BA24EB22D72010000D40300000C00000000000000000000000000190300006662782F636F72652E786D6C504B01021400140006080800CC70623B408A7D3B7C0000009D0000000B00000000000000000000000000B50400006662782F636E782E786D6C504B01021400140006080800CC70623B
310
449FB9BD290100001202000031000000000000000000000000005A0500006662782F36394639363044362D344446342D343946362D394244322D3234314243333846323333332F636F72652E786D6C504B01021400140006080800CC70623BAD7543B64E010000330300003000000000000000000000000000D20600006662
310
782F36394639363044362D344446342D343946362D394244322D3234314243333846323333332F636E782E786D6C504B01021400140006080800CC70623B8D05915C650500003B10000034000000000000000000000000006E0800006662782F36394639363044362D344446342D343946362D394244322D32343142433338
310
46323333332F6F626A656374732E786D6C504B01021400140006080000CC70623B0000000000000000000000003500000000000000000000000000250E00006662782F36394639363044362D344446342D343946362D394244322D3234314243333846323333332F76657274696365732E62696E504B010214001400060808
310
00CC70623BF270F13306000000040000003600000000000000000000000000780E00006662782F36394639363044362D344446342D343946362D394244322D3234314243333846323333332F747269616E676C65732E62696E504B01021400140006080000CC70623B00000000000000000000000037000000000000000000
310
00000000D20E00006662782F36394639363044362D344446342D343946362D394244322D3234314243333846323333332F617474726962757465732E62696E504B01021400140006080800CC70623B08DA0BD190000000410100003600000000000000000000000000270F00006662782F36394639363044362D344446342D
310
343946362D394244322D3234314243333846323333332F6469726563746F72792E786D6C504B01021400140006080800CC70623BCA768048FE000000A00100003B000000000000000000000000000B1000006662782F36394639363044362D344446342D343946362D394244322D3234314243333846323333332F7265736F
310
75726365732F636F72652E786D6C504B0506000000000E000E0080040000621100000000
  0
XRECORD
  5
176
102
{ACAD_REACTORS
330
173
102
}
330
173
100
AcDbXrecord
280
     1
270
     1
271
     1
  0
XRECORD
  5
177
102
{ACAD_REACTORS
330
173
102
}
330
173
100
AcDbXrecord
280
     1
270
     1
271
     1
  0
XRECORD
  5
205B
102
{ACAD_REACTORS
330
205A
102
}
330
205A
100
AcDbXrecord
280
     1
102
ACAD_ROUNDTRIP_2012_MLEADER_STYLE
298
     1
  0
XRECORD
  5
206D
102
{ACAD_REACTORS
330
206C
102
}
330
206C
100
AcDbXrecord
280
     1
102
DISPLAYNAME
  1
Metric50
102
FLAGS
 90
        0
  0
CELLSTYLEMAP
  5
202D
102
{ACAD_REACTORS
330
162
102
}
330
162
100
AcDbCellStyleMap
 90
        3
300
CELLSTYLE
  1
TABLEFORMAT_BEGIN
 90
        5
170
     1
 91
        0
 92
    32768
 62
   257
 93
        1
300
CONTENTFORMAT
  1
CONTENTFORMAT_BEGIN
 90
        0
 91
        0
 92
      512
 93
        0
300

 40
0.0
140
1.0
 94
        5
 62
     0
340
11
144
6.0
309
CONTENTFORMAT_END
171
     1
301
MARGIN
  1
CELLMARGIN_BEGIN
 40
1.5
 40
1.5
 40
1.5
 40
1.5
 40
4.5
 40
4.5
309
CELLMARGIN_END
 94
        6
 95
        1
302
GRIDFORMAT
  1
GRIDFORMAT_BEGIN
 90
        0
 91
        1
 62
     0
 92
       -2
340
14
 93
        0
 40
1.125
309
GRIDFORMAT_END
 95
        2
302
GRIDFORMAT
  1
GRIDFORMAT_BEGIN
 90
        0
 91
        1
 62
     0
 92
       -2
340
14
 93
        0
 40
1.125
309
GRIDFORMAT_END
 95
        4
302
GRIDFORMAT
  1
GRIDFORMAT_BEGIN
 90
        0
 91
        1
 62
     0
 92
       -2
340
14
 93
        0
 40
1.125
309
GRIDFORMAT_END
 95
        8
302
GRIDFORMAT
  1
GRIDFORMAT_BEGIN
 90
        0
 91
        1
 62
     0
 92
       -2
340
14
 93
        0
 40
1.125
309
GRIDFORMAT_END
 95
       16
302
GRIDFORMAT
  1
GRIDFORMAT_BEGIN
 90
        0
 91
        1
 62
     0
 92
       -2
340
14
 93
        0
 40
1.125
309
GRIDFORMAT_END
 95
       32
302
GRIDFORMAT
  1
GRIDFORMAT_BEGIN
 90
        0
 91
        1
 62
     0
 92
       -2
340
14
 93
        0
 40
1.125
309
GRIDFORMAT_END
309
TABLEFORMAT_END
  1
CELLSTYLE_BEGIN
 90
        1
 91
        1
300
_TITLE
309
CELLSTYLE_END
300
CELLSTYLE
  1
TABLEFORMAT_BEGIN
 90
        5
170
     1
 91
        0
 92
        0
 62
   257
 93
        1
300
CONTENTFORMAT
  1
CONTENTFORMAT_BEGIN
 90
        0
 91
        0
 92
      512
 93
        0
300

 40
0.0
140
1.0
 94
        5
 62
     0
340
11
144
4.5
309
CONTENTFORMAT_END
171
     1
301
MARGIN
  1
CELLMARGIN_BEGIN
 40
1.5
 40
1.5
 40
1.5
 40
1.5
 40
4.5
 40
4.5
309
CELLMARGIN_END
 94
        6
 95
        1
302
GRIDFORMAT
  1
GRIDFORMAT_BEGIN
 90
        0
 91
        1
 62
     0
 92
       -2
340
14
 93
        0
 40
1.125
309
GRIDFORMAT_END
 95
        2
302
GRIDFORMAT
  1
GRIDFORMAT_BEGIN
 90
        0
 91
        1
 62
     0
 92
       -2
340
14
 93
        0
 40
1.125
309
GRIDFORMAT_END
 95
        4
302
GRIDFORMAT
  1
GRIDFORMAT_BEGIN
 90
        0
 91
        1
 62
     0
 92
       -2
340
14
 93
        0
 40
1.125
309
GRIDFORMAT_END
 95
        8
302
GRIDFORMAT
  1
GRIDFORMAT_BEGIN
 90
        0
 91
        1
 62
     0
 92
       -2
340
14
 93
        0
 40
1.125
309
GRIDFORMAT_END
 95
       16
302
GRIDFORMAT
  1
GRIDFORMAT_BEGIN
 90
        0
 91
        1
 62
     0
 92
       -2
340
14
 93
        0
 40
1.125
309
GRIDFORMAT_END
 95
       32
302
GRIDFORMAT
  1
GRIDFORMAT_BEGIN
 90
        0
 91
        1
 62
     0
 92
       -2
340
14
 93
        0
 40
1.125
309
GRIDFORMAT_END
309
TABLEFORMAT_END
  1
CELLSTYLE_BEGIN
 90
        2
 91
        1
300
_HEADER
309
CELLSTYLE_END
300
CELLSTYLE
  1
TABLEFORMAT_BEGIN
 90
        5
170
     1
 91
        0
 92
        0
 62
   257
 93
        1
300
CONTENTFORMAT
  1
CONTENTFORMAT_BEGIN
 90
        0
 91
        0
 92
      512
 93
        0
300

 40
0.0
140
1.0
 94
        2
 62
     0
340
11
144
4.5
309
CONTENTFORMAT_END
171
     1
301
MARGIN
  1
CELLMARGIN_BEGIN
 40
1.5
 40
1.5
 40
1.5
 40
1.5
 40
4.5
 40
4.5
309
CELLMARGIN_END
 94
        6
 95
        1
302
GRIDFORMAT
  1
GRIDFORMAT_BEGIN
 90
        0
 91
        1
 62
     0
 92
       -2
340
14
 93
        0
 40
1.125
309
GRIDFORMAT_END
 95
        2
302
GRIDFORMAT
  1
GRIDFORMAT_BEGIN
 90
        0
 91
        1
 62
     0
 92
       -2
340
14
 93
        0
 40
1.125
309
GRIDFORMAT_END
 95
        4
302
GRIDFORMAT
  1
GRIDFORMAT_BEGIN
 90
        0
 91
        1
 62
     0
 92
       -2
340
14
 93
        0
 40
1.125
309
GRIDFORMAT_END
 95
        8
302
GRIDFORMAT
  1
GRIDFORMAT_BEGIN
 90
        0
 91
        1
 62
     0
 92
       -2
340
14
 93
        0
 40
1.125
309
GRIDFORMAT_END
 95
       16
302
GRIDFORMAT
  1
GRIDFORMAT_BEGIN
 90
        0
 91
        1
 62
     0
 92
       -2
340
14
 93
        0
 40
1.125
309
GRIDFORMAT_END
 95
       32
302
GRIDFORMAT
  1
GRIDFORMAT_BEGIN
 90
        0
 91
        1
 62
     0
 92
       -2
340
14
 93
        0
 40
1.125
309
GRIDFORMAT_END
309
TABLEFORMAT_END
  1
CELLSTYLE_BEGIN
 90
        3
 91
        2
300
_DATA
309
CELLSTYLE_END
  0
XRECORD
  5
2032
102
{ACAD_REACTORS
330
162
102
}
330
162
100
AcDbXrecord
280
     1
102
ACAD_ROUNDTRIP_PRE2007_TABLESTYLE
 90
      512
 91
        0
  1

 92
      512
 93
        0
  2

 94
      512
 95
        0
  3

  0
XRECORD
  5
2045
102
{ACAD_REACTORS
330
2044
102
}
330
2044
100
AcDbXrecord
280
     1
102
RTVSPost2010Prop28
280
     1
102
RTVSPost2010PropOp28
 70
     1
102
RTVSPost2010Prop29
280
     1
102
RTVSPost2010PropOp29
 70
     1
102
RTVSPost2010Prop30
280
     0
102
RTVSPost2010PropOp30
 70
     1
102
RTVSPost2010Prop31
280
     0
102
RTVSPost2010PropOp31
 70
     1
102
RTVSPost2010Prop32
280
     0
102
RTVSPost2010PropOp32
 70
     1
102
RTVSPost2010Prop33
280
     0
102
RTVSPost2010PropOp33
 70
     1
102
RTVSPost2010Prop34
280
     0
102
RTVSPost2010PropOp34
 70
     1
102
RTVSPost2010Prop35
280
     0
102
RTVSPost2010PropOp35
 70
     1
102
RTVSPost2010Prop36
280
     0
102
RTVSPost2010PropOp36
 70
     1
102
RTVSPost2010Prop37
 90
       50
102
RTVSPost2010PropOp37
 70
     1
102
RTVSPost2010Prop38
140
0.0
102
RTVSPost2010PropOp38
 70
     1
102
RTVSPost2010Prop39
140
1.0
102
RTVSPost2010PropOp39
 70
     1
102
RTVSPost2010Prop40
 90
        0
102
RTVSPost2010PropOp40
 70
     1
102
RTVSPost2010Prop41ColorIndex
 90
       18
102
RTVSPost2010Prop41ColorRGB
 90
        0
102
RTVSPost2010PropOp41
 70
     1
102
RTVSPost2010Prop42
 90
       50
102
RTVSPost2010PropOp42
 70
     1
102
RTVSPost2010Prop43
 90
        3
102
RTVSPost2010PropOp43
 70
     1
102
RTVSPost2010Prop44ColorIndex
 90
        5
102
RTVSPost2010Prop44ColorRGB
 90
      255
102
RTVSPost2010PropOp44
 70
     1
102
RTVSPost2010Prop45
280
     0
102
RTVSPost2010PropOp45
 70
     1
102
RTVSPost2010Prop46
 90
       50
102
RTVSPost2010PropOp46
 70
     1
102
RTVSPost2010Prop47
 90
       50
102
RTVSPost2010PropOp47
 70
     1
102
RTVSPost2010Prop48
 90
       50
102
RTVSPost2010PropOp48
 70
     1
102
RTVSPost2010Prop49
280
     0
102
RTVSPost2010PropOp49
 70
     1
102
RTVSPost2010Prop50
 90
       50
102
RTVSPost2010PropOp50
 70
     1
102
RTVSPost2010Prop51ColorIndex
 90
      256
102
RTVSPost2010Prop51ColorRGB
 90
-16777216
102
RTVSPost2010PropOp51
 70
     0
102
RTVSPost2010Prop52
140
1.0
102
RTVSPost2010PropOp52
 70
     0
102
RTVSPost2010Prop53
 90
        2
102
RTVSPost2010PropOp53
 70
     1
102
RTVSPost2010Prop54
  1
strokes_ogs.tif
102
RTVSPost2010PropOp54
 70
     1
102
RTVSPost2010Prop55
280
     0
102
RTVSPost2010PropOp55
 70
     1
102
RTVSPost2010Prop56
140
1.0
102
RTVSPost2010PropOp56
 70
     1
102
RTVSPost2010Prop57
140
1.0
102
RTVSPost2010PropOp57
 70
     1
102
RTVSPropertyOp0
 70
     1
102
RTVSPropertyOp1
 70
     1
102
RTVSPropertyOp2
 70
     1
102
RTVSPropertyOp3
 70
     1
102
RTVSPropertyOp4
 70
     1
102
RTVSPropertyOp5
 70
     1
102
RTVSPropertyOp6
 70
     1
102
RTVSPropertyOp7
 70
     1
102
RTVSPropertyOp8
 70
     1
102
RTVSPropertyOp9
 70
     1
102
RTVSPropertyOp10
 70
     1
102
RTVSPropertyOp11
 70
     1
102
RTVSPropertyOp12
 70
     1
102
RTVSPropertyOp13
 70
     1
102
RTVSPropertyOp14
 70
     1
102
RTVSPropertyOp15
 70
     1
102
RTVSPropertyOp16
 70
     1
102
RTVSPropertyOp17
 70
     1
102
RTVSPropertyOp18
 70
     1
102
RTVSPropertyOp19
 70
     1
102
RTVSPropertyOp20
 70
     1
102
RTVSPropertyOp21
 70
     1
102
RTVSPropertyOp22
 70
     1
102
RTVSPropertyOp23
 70
     1
102
RTVSPropertyOp24
 70
     1
102
RTVSPropertyOp25
 70
     1
102
RTVSPropertyOp26
 70
     1
102
RTVSPropertyOp27
 70
     1
102
RTVSPropertyOp28
 70
     1
102
RTVSPropertyOp29
 70
     1
102
RTVSPropertyOp30
 70
     1
102
RTVSPropertyOp31
 70
     1
102
RTVSPropertyOp32
 70
     1
102
RTVSPropertyOp33
 70
     1
102
RTVSPropertyOp34
 70
     1
102
RTVSPropertyOp35
 70
     1
102
RTVSPropertyOp36
 70
     1
102
RTVSPropertyOp37
 70
     1
102
RTVSPropertyOp38
 70
     1
102
RTVSPropertyOp39
 70
     1
102
RTVSPropertyOp40
 70
     1
102
RTVSPropertyOp41
 70
     1
102
RTVSPropertyOp42
 70
     1
102
RTVSPropertyOp43
 70
     1
102
RTVSPropertyOp44
 70
     1
102
RTVSPropertyOp45
 70
     1
102
RTVSPropertyOp46
 70
     1
102
RTVSPropertyOp47
 70
     1
102
RTVSPropertyOp48
 70
     1
102
RTVSPropertyOp49
 70
     1
102
RTVSPropertyOp50
 70
     1
102
RTVSPropertyOp51
 70
     0
102
RTVSPropertyOp52
 70
     0
102
RTVSPropertyOp53
 70
     1
102
RTVSPropertyOp54
 70
     1
102
RTVSPropertyOp55
 70
     1
102
RTVSPropertyOp56
 70
     1
102
RTVSPropertyOp57
 70
     1
102
RTVSPropertyOp58
 70
     1
102
RTVSPropertyOp59
 70
     1
102
RTVSPropertyOp60
 70
     1
102
RTVSPropertyOp61
 70
     1
102
RTVSPropertyOp62
 70
     1
  0
XRECORD
  5
2043
102
{ACAD_REACTORS
330
2042
102
}
330
2042
100
AcDbXrecord
280
     1
102
RTVSPost2010Prop28
280
     0
102
RTVSPost2010PropOp28
 70
     1
102
RTVSPost2010Prop29
280
     1
102
RTVSPost2010PropOp29
 70
     1
102
RTVSPost2010Prop30
280
     1
102
RTVSPost2010PropOp30
 70
     1
102
RTVSPost2010Prop31
280
     0
102
RTVSPost2010PropOp31
 70
     1
102
RTVSPost2010Prop32
280
     0
102
RTVSPost2010PropOp32
 70
     1
102
RTVSPost2010Prop33
280
     0
102
RTVSPost2010PropOp33
 70
     1
102
RTVSPost2010Prop34
280
     0
102
RTVSPost2010PropOp34
 70
     1
102
RTVSPost2010Prop35
280
     0
102
RTVSPost2010PropOp35
 70
     1
102
RTVSPost2010Prop36
280
     0
102
RTVSPost2010PropOp36
 70
     1
102
RTVSPost2010Prop37
 90
       50
102
RTVSPost2010PropOp37
 70
     1
102
RTVSPost2010Prop38
140
0.0
102
RTVSPost2010PropOp38
 70
     1
102
RTVSPost2010Prop39
140
1.0
102
RTVSPost2010PropOp39
 70
     1
102
RTVSPost2010Prop40
 90
        0
102
RTVSPost2010PropOp40
 70
     1
102
RTVSPost2010Prop41ColorIndex
 90
       18
102
RTVSPost2010Prop41ColorRGB
 90
        0
102
RTVSPost2010PropOp41
 70
     1
102
RTVSPost2010Prop42
 90
       50
102
RTVSPost2010PropOp42
 70
     1
102
RTVSPost2010Prop43
 90
        3
102
RTVSPost2010PropOp43
 70
     1
102
RTVSPost2010Prop44ColorIndex
 90
        5
102
RTVSPost2010Prop44ColorRGB
 90
      255
102
RTVSPost2010PropOp44
 70
     1
102
RTVSPost2010Prop45
280
     0
102
RTVSPost2010PropOp45
 70
     1
102
RTVSPost2010Prop46
 90
       50
102
RTVSPost2010PropOp46
 70
     1
102
RTVSPost2010Prop47
 90
       50
102
RTVSPost2010PropOp47
 70
     1
102
RTVSPost2010Prop48
 90
       50
102
RTVSPost2010PropOp48
 70
     1
102
RTVSPost2010Prop49
280
     0
102
RTVSPost2010PropOp49
 70
     1
102
RTVSPost2010Prop50
 90
       50
102
RTVSPost2010PropOp50
 70
     1
102
RTVSPost2010Prop51ColorIndex
 90
      256
102
RTVSPost2010Prop51ColorRGB
 90
-16777216
102
RTVSPost2010PropOp51
 70
     0
102
RTVSPost2010Prop52
140
1.0
102
RTVSPost2010PropOp52
 70
     0
102
RTVSPost2010Prop53
 90
        2
102
RTVSPost2010PropOp53
 70
     1
102
RTVSPost2010Prop54
  1
strokes_ogs.tif
102
RTVSPost2010PropOp54
 70
     1
102
RTVSPost2010Prop55
280
     0
102
RTVSPost2010PropOp55
 70
     1
102
RTVSPost2010Prop56
140
1.0
102
RTVSPost2010PropOp56
 70
     1
102
RTVSPost2010Prop57
140
1.0
102
RTVSPost2010PropOp57
 70
     1
102
RTVSPropertyOp0
 70
     1
102
RTVSPropertyOp1
 70
     1
102
RTVSPropertyOp2
 70
     1
102
RTVSPropertyOp3
 70
     1
102
RTVSPropertyOp4
 70
     1
102
RTVSPropertyOp5
 70
     1
102
RTVSPropertyOp6
 70
     1
102
RTVSPropertyOp7
 70
     1
102
RTVSPropertyOp8
 70
     1
102
RTVSPropertyOp9
 70
     1
102
RTVSPropertyOp10
 70
     1
102
RTVSPropertyOp11
 70
     1
102
RTVSPropertyOp12
 70
     1
102
RTVSPropertyOp13
 70
     1
102
RTVSPropertyOp14
 70
     1
102
RTVSPropertyOp15
 70
     1
102
RTVSPropertyOp16
 70
     1
102
RTVSPropertyOp17
 70
     1
102
RTVSPropertyOp18
 70
     1
102
RTVSPropertyOp19
 70
     1
102
RTVSPropertyOp20
 70
     1
102
RTVSPropertyOp21
 70
     1
102
RTVSPropertyOp22
 70
     1
102
RTVSPropertyOp23
 70
     1
102
RTVSPropertyOp24
 70
     1
102
RTVSPropertyOp25
 70
     1
102
RTVSPropertyOp26
 70
     1
102
RTVSPropertyOp27
 70
     1
102
RTVSPropertyOp28
 70
     1
102
RTVSPropertyOp29
 70
     1
102
RTVSPropertyOp30
 70
     1
102
RTVSPropertyOp31
 70
     1
102
RTVSPropertyOp32
 70
     1
102
RTVSPropertyOp33
 70
     1
102
RTVSPropertyOp34
 70
     1
102
RTVSPropertyOp35
 70
     1
102
RTVSPropertyOp36
 70
     1
102
RTVSPropertyOp37
 70
     1
102
RTVSPropertyOp38
 70
     1
102
RTVSPropertyOp39
 70
     1
102
RTVSPropertyOp40
 70
     1
102
RTVSPropertyOp41
 70
     1
102
RTVSPropertyOp42
 70
     1
102
RTVSPropertyOp43
 70
     1
102
RTVSPropertyOp44
 70
     1
102
RTVSPropertyOp45
 70
     1
102
RTVSPropertyOp46
 70
     1
102
RTVSPropertyOp47
 70
     1
102
RTVSPropertyOp48
 70
     1
102
RTVSPropertyOp49
 70
     1
102
RTVSPropertyOp50
 70
     1
102
RTVSPropertyOp51
 70
     0
102
RTVSPropertyOp52
 70
     0
102
RTVSPropertyOp53
 70
     1
102
RTVSPropertyOp54
 70
     1
102
RTVSPropertyOp55
 70
     1
102
RTVSPropertyOp56
 70
     1
102
RTVSPropertyOp57
 70
     1
102
RTVSPropertyOp58
 70
     1
102
RTVSPropertyOp59
 70
     1
102
RTVSPropertyOp60
 70
     1
102
RTVSPropertyOp61
 70
     1
102
RTVSPropertyOp62
 70
     1
  0
XRECORD
  5
2051
102
{ACAD_REACTORS
330
2050
102
}
330
2050
100
AcDbXrecord
280
     1
102
RTVSPost2010Prop28
280
     0
102
RTVSPost2010PropOp28
 70
     1
102
RTVSPost2010Prop29
280
     1
102
RTVSPost2010PropOp29
 70
     1
102
RTVSPost2010Prop30
280
     1
102
RTVSPost2010PropOp30
 70
     1
102
RTVSPost2010Prop31
280
     0
102
RTVSPost2010PropOp31
 70
     1
102
RTVSPost2010Prop32
280
     0
102
RTVSPost2010PropOp32
 70
     1
102
RTVSPost2010Prop33
280
     0
102
RTVSPost2010PropOp33
 70
     1
102
RTVSPost2010Prop34
280
     0
102
RTVSPost2010PropOp34
 70
     1
102
RTVSPost2010Prop35
280
     0
102
RTVSPost2010PropOp35
 70
     1
102
RTVSPost2010Prop36
280
     0
102
RTVSPost2010PropOp36
 70
     1
102
RTVSPost2010Prop37
 90
       50
102
RTVSPost2010PropOp37
 70
     1
102
RTVSPost2010Prop38
140
0.0
102
RTVSPost2010PropOp38
 70
     1
102
RTVSPost2010Prop39
140
1.0
102
RTVSPost2010PropOp39
 70
     1
102
RTVSPost2010Prop40
 90
        0
102
RTVSPost2010PropOp40
 70
     1
102
RTVSPost2010Prop41ColorIndex
 90
       18
102
RTVSPost2010Prop41ColorRGB
 90
        0
102
RTVSPost2010PropOp41
 70
     1
102
RTVSPost2010Prop42
 90
       50
102
RTVSPost2010PropOp42
 70
     1
102
RTVSPost2010Prop43
 90
        3
102
RTVSPost2010PropOp43
 70
     1
102
RTVSPost2010Prop44ColorIndex
 90
        5
102
RTVSPost2010Prop44ColorRGB
 90
      255
102
RTVSPost2010PropOp44
 70
     1
102
RTVSPost2010Prop45
280
     0
102
RTVSPost2010PropOp45
 70
     1
102
RTVSPost2010Prop46
 90
       50
102
RTVSPost2010PropOp46
 70
     1
102
RTVSPost2010Prop47
 90
       50
102
RTVSPost2010PropOp47
 70
     1
102
RTVSPost2010Prop48
 90
       50
102
RTVSPost2010PropOp48
 70
     1
102
RTVSPost2010Prop49
280
     0
102
RTVSPost2010PropOp49
 70
     1
102
RTVSPost2010Prop50
 90
       50
102
RTVSPost2010PropOp50
 70
     1
102
RTVSPost2010Prop51ColorIndex
 90
      256
102
RTVSPost2010Prop51ColorRGB
 90
-16777216
102
RTVSPost2010PropOp51
 70
     0
102
RTVSPost2010Prop52
140
1.0
102
RTVSPost2010PropOp52
 70
     0
102
RTVSPost2010Prop53
 90
        2
102
RTVSPost2010PropOp53
 70
     1
102
RTVSPost2010Prop54
  1
strokes_ogs.tif
102
RTVSPost2010PropOp54
 70
     1
102
RTVSPost2010Prop55
280
     0
102
RTVSPost2010PropOp55
 70
     1
102
RTVSPost2010Prop56
140
1.0
102
RTVSPost2010PropOp56
 70
     1
102
RTVSPost2010Prop57
140
1.0
102
RTVSPost2010PropOp57
 70
     1
102
RTVSPropertyOp0
 70
     1
102
RTVSPropertyOp1
 70
     1
102
RTVSPropertyOp2
 70
     1
102
RTVSPropertyOp3
 70
     1
102
RTVSPropertyOp4
 70
     1
102
RTVSPropertyOp5
 70
     1
102
RTVSPropertyOp6
 70
     1
102
RTVSPropertyOp7
 70
     1
102
RTVSPropertyOp8
 70
     1
102
RTVSPropertyOp9
 70
     1
102
RTVSPropertyOp10
 70
     1
102
RTVSPropertyOp11
 70
     1
102
RTVSPropertyOp12
 70
     1
102
RTVSPropertyOp13
 70
     1
102
RTVSPropertyOp14
 70
     1
102
RTVSPropertyOp15
 70
     1
102
RTVSPropertyOp16
 70
     1
102
RTVSPropertyOp17
 70
     1
102
RTVSPropertyOp18
 70
     1
102
RTVSPropertyOp19
 70
     1
102
RTVSPropertyOp20
 70
     1
102
RTVSPropertyOp21
 70
     1
102
RTVSPropertyOp22
 70
     1
102
RTVSPropertyOp23
 70
     1
102
RTVSPropertyOp24
 70
     1
102
RTVSPropertyOp25
 70
     1
102
RTVSPropertyOp26
 70
     1
102
RTVSPropertyOp27
 70
     1
102
RTVSPropertyOp28
 70
     1
102
RTVSPropertyOp29
 70
     1
102
RTVSPropertyOp30
 70
     1
102
RTVSPropertyOp31
 70
     1
102
RTVSPropertyOp32
 70
     1
102
RTVSPropertyOp33
 70
     1
102
RTVSPropertyOp34
 70
     1
102
RTVSPropertyOp35
 70
     1
102
RTVSPropertyOp36
 70
     1
102
RTVSPropertyOp37
 70
     1
102
RTVSPropertyOp38
 70
     1
102
RTVSPropertyOp39
 70
     1
102
RTVSPropertyOp40
 70
     1
102
RTVSPropertyOp41
 70
     1
102
RTVSPropertyOp42
 70
     1
102
RTVSPropertyOp43
 70
     1
102
RTVSPropertyOp44
 70
     1
102
RTVSPropertyOp45
 70
     1
102
RTVSPropertyOp46
 70
     1
102
RTVSPropertyOp47
 70
     1
102
RTVSPropertyOp48
 70
     1
102
RTVSPropertyOp49
 70
     1
102
RTVSPropertyOp50
 70
     1
102
RTVSPropertyOp51
 70
     0
102
RTVSPropertyOp52
 70
     0
102
RTVSPropertyOp53
 70
     1
102
RTVSPropertyOp54
 70
     1
102
RTVSPropertyOp55
 70
     1
102
RTVSPropertyOp56
 70
     1
102
RTVSPropertyOp57
 70
     1
102
RTVSPropertyOp58
 70
     1
102
RTVSPropertyOp59
 70
     1
102
RTVSPropertyOp60
 70
     1
102
RTVSPropertyOp61
 70
     1
102
RTVSPropertyOp62
 70
     1
  0
XRECORD
  5
2059
102
{ACAD_REACTORS
330
2058
102
}
330
2058
100
AcDbXrecord
280
     1
102
RTVSPost2010Prop28
280
     0
102
RTVSPost2010PropOp28
 70
     1
102
RTVSPost2010Prop29
280
     1
102
RTVSPost2010PropOp29
 70
     1
102
RTVSPost2010Prop30
280
     1
102
RTVSPost2010PropOp30
 70
     1
102
RTVSPost2010Prop31
280
     0
102
RTVSPost2010PropOp31
 70
     1
102
RTVSPost2010Prop32
280
     0
102
RTVSPost2010PropOp32
 70
     1
102
RTVSPost2010Prop33
280
     0
102
RTVSPost2010PropOp33
 70
     1
102
RTVSPost2010Prop34
280
     0
102
RTVSPost2010PropOp34
 70
     1
102
RTVSPost2010Prop35
280
     0
102
RTVSPost2010PropOp35
 70
     1
102
RTVSPost2010Prop36
280
     0
102
RTVSPost2010PropOp36
 70
     1
102
RTVSPost2010Prop37
 90
       50
102
RTVSPost2010PropOp37
 70
     1
102
RTVSPost2010Prop38
140
0.0
102
RTVSPost2010PropOp38
 70
     1
102
RTVSPost2010Prop39
140
1.0
102
RTVSPost2010PropOp39
 70
     1
102
RTVSPost2010Prop40
 90
        0
102
RTVSPost2010PropOp40
 70
     1
102
RTVSPost2010Prop41ColorIndex
 90
       18
102
RTVSPost2010Prop41ColorRGB
 90
        0
102
RTVSPost2010PropOp41
 70
     1
102
RTVSPost2010Prop42
 90
       50
102
RTVSPost2010PropOp42
 70
     1
102
RTVSPost2010Prop43
 90
        3
102
RTVSPost2010PropOp43
 70
     1
102
RTVSPost2010Prop44ColorIndex
 90
        5
102
RTVSPost2010Prop44ColorRGB
 90
      255
102
RTVSPost2010PropOp44
 70
     1
102
RTVSPost2010Prop45
280
     0
102
RTVSPost2010PropOp45
 70
     1
102
RTVSPost2010Prop46
 90
       50
102
RTVSPost2010PropOp46
 70
     1
102
RTVSPost2010Prop47
 90
       50
102
RTVSPost2010PropOp47
 70
     1
102
RTVSPost2010Prop48
 90
       50
102
RTVSPost2010PropOp48
 70
     1
102
RTVSPost2010Prop49
280
     0
102
RTVSPost2010PropOp49
 70
     1
102
RTVSPost2010Prop50
 90
       50
102
RTVSPost2010PropOp50
 70
     1
102
RTVSPost2010Prop51ColorIndex
 90
      256
102
RTVSPost2010Prop51ColorRGB
 90
-16777216
102
RTVSPost2010PropOp51
 70
     0
102
RTVSPost2010Prop52
140
1.0
102
RTVSPost2010PropOp52
 70
     0
102
RTVSPost2010Prop53
 90
        2
102
RTVSPost2010PropOp53
 70
     1
102
RTVSPost2010Prop54
  1
strokes_ogs.tif
102
RTVSPost2010PropOp54
 70
     1
102
RTVSPost2010Prop55
280
     0
102
RTVSPost2010PropOp55
 70
     1
102
RTVSPost2010Prop56
140
1.0
102
RTVSPost2010PropOp56
 70
     1
102
RTVSPost2010Prop57
140
1.0
102
RTVSPost2010PropOp57
 70
     1
102
RTVSPropertyOp0
 70
     1
102
RTVSPropertyOp1
 70
     1
102
RTVSPropertyOp2
 70
     1
102
RTVSPropertyOp3
 70
     1
102
RTVSPropertyOp4
 70
     1
102
RTVSPropertyOp5
 70
     1
102
RTVSPropertyOp6
 70
     1
102
RTVSPropertyOp7
 70
     1
102
RTVSPropertyOp8
 70
     1
102
RTVSPropertyOp9
 70
     1
102
RTVSPropertyOp10
 70
     1
102
RTVSPropertyOp11
 70
     1
102
RTVSPropertyOp12
 70
     1
102
RTVSPropertyOp13
 70
     1
102
RTVSPropertyOp14
 70
     1
102
RTVSPropertyOp15
 70
     1
102
RTVSPropertyOp16
 70
     1
102
RTVSPropertyOp17
 70
     1
102
RTVSPropertyOp18
 70
     1
102
RTVSPropertyOp19
 70
     1
102
RTVSPropertyOp20
 70
     1
102
RTVSPropertyOp21
 70
     1
102
RTVSPropertyOp22
 70
     1
102
RTVSPropertyOp23
 70
     1
102
RTVSPropertyOp24
 70
     1
102
RTVSPropertyOp25
 70
     1
102
RTVSPropertyOp26
 70
     1
102
RTVSPropertyOp27
 70
     1
102
RTVSPropertyOp28
 70
     1
102
RTVSPropertyOp29
 70
     1
102
RTVSPropertyOp30
 70
     1
102
RTVSPropertyOp31
 70
     1
102
RTVSPropertyOp32
 70
     1
102
RTVSPropertyOp33
 70
     1
102
RTVSPropertyOp34
 70
     1
102
RTVSPropertyOp35
 70
     1
102
RTVSPropertyOp36
 70
     1
102
RTVSPropertyOp37
 70
     1
102
RTVSPropertyOp38
 70
     1
102
RTVSPropertyOp39
 70
     1
102
RTVSPropertyOp40
 70
     1
102
RTVSPropertyOp41
 70
     1
102
RTVSPropertyOp42
 70
     1
102
RTVSPropertyOp43
 70
     1
102
RTVSPropertyOp44
 70
     1
102
RTVSPropertyOp45
 70
     1
102
RTVSPropertyOp46
 70
     1
102
RTVSPropertyOp47
 70
     1
102
RTVSPropertyOp48
 70
     1
102
RTVSPropertyOp49
 70
     1
102
RTVSPropertyOp50
 70
     1
102
RTVSPropertyOp51
 70
     0
102
RTVSPropertyOp52
 70
     0
102
RTVSPropertyOp53
 70
     1
102
RTVSPropertyOp54
 70
     1
102
RTVSPropertyOp55
 70
     1
102
RTVSPropertyOp56
 70
     1
102
RTVSPropertyOp57
 70
     1
102
RTVSPropertyOp58
 70
     1
102
RTVSPropertyOp59
 70
     1
102
RTVSPropertyOp60
 70
     1
102
RTVSPropertyOp61
 70
     1
102
RTVSPropertyOp62
 70
     1
  0
XRECORD
  5
204B
102
{ACAD_REACTORS
330
204A
102
}
330
204A
100
AcDbXrecord
280
     1
102
RTVSPost2010Prop28
280
     0
102
RTVSPost2010PropOp28
 70
     1
102
RTVSPost2010Prop29
280
     1
102
RTVSPost2010PropOp29
 70
     1
102
RTVSPost2010Prop30
280
     1
102
RTVSPost2010PropOp30
 70
     1
102
RTVSPost2010Prop31
280
     0
102
RTVSPost2010PropOp31
 70
     1
102
RTVSPost2010Prop32
280
     0
102
RTVSPost2010PropOp32
 70
     1
102
RTVSPost2010Prop33
280
     0
102
RTVSPost2010PropOp33
 70
     1
102
RTVSPost2010Prop34
280
     0
102
RTVSPost2010PropOp34
 70
     1
102
RTVSPost2010Prop35
280
     0
102
RTVSPost2010PropOp35
 70
     1
102
RTVSPost2010Prop36
280
     0
102
RTVSPost2010PropOp36
 70
     1
102
RTVSPost2010Prop37
 90
       50
102
RTVSPost2010PropOp37
 70
     1
102
RTVSPost2010Prop38
140
0.0
102
RTVSPost2010PropOp38
 70
     1
102
RTVSPost2010Prop39
140
1.0
102
RTVSPost2010PropOp39
 70
     1
102
RTVSPost2010Prop40
 90
        0
102
RTVSPost2010PropOp40
 70
     1
102
RTVSPost2010Prop41ColorIndex
 90
       18
102
RTVSPost2010Prop41ColorRGB
 90
        0
102
RTVSPost2010PropOp41
 70
     1
102
RTVSPost2010Prop42
 90
       50
102
RTVSPost2010PropOp42
 70
     1
102
RTVSPost2010Prop43
 90
        3
102
RTVSPost2010PropOp43
 70
     1
102
RTVSPost2010Prop44ColorIndex
 90
        5
102
RTVSPost2010Prop44ColorRGB
 90
      255
102
RTVSPost2010PropOp44
 70
     1
102
RTVSPost2010Prop45
280
     0
102
RTVSPost2010PropOp45
 70
     1
102
RTVSPost2010Prop46
 90
       50
102
RTVSPost2010PropOp46
 70
     1
102
RTVSPost2010Prop47
 90
       50
102
RTVSPost2010PropOp47
 70
     1
102
RTVSPost2010Prop48
 90
       50
102
RTVSPost2010PropOp48
 70
     1
102
RTVSPost2010Prop49
280
     0
102
RTVSPost2010PropOp49
 70
     1
102
RTVSPost2010Prop50
 90
       50
102
RTVSPost2010PropOp50
 70
     1
102
RTVSPost2010Prop51ColorIndex
 90
      256
102
RTVSPost2010Prop51ColorRGB
 90
-16777216
102
RTVSPost2010PropOp51
 70
     0
102
RTVSPost2010Prop52
140
1.0
102
RTVSPost2010PropOp52
 70
     0
102
RTVSPost2010Prop53
 90
        2
102
RTVSPost2010PropOp53
 70
     1
102
RTVSPost2010Prop54
  1
strokes_ogs.tif
102
RTVSPost2010PropOp54
 70
     1
102
RTVSPost2010Prop55
280
     0
102
RTVSPost2010PropOp55
 70
     1
102
RTVSPost2010Prop56
140
1.0
102
RTVSPost2010PropOp56
 70
     1
102
RTVSPost2010Prop57
140
1.0
102
RTVSPost2010PropOp57
 70
     1
102
RTVSPropertyOp0
 70
     1
102
RTVSPropertyOp1
 70
     1
102
RTVSPropertyOp2
 70
     1
102
RTVSPropertyOp3
 70
     1
102
RTVSPropertyOp4
 70
     1
102
RTVSPropertyOp5
 70
     1
102
RTVSPropertyOp6
 70
     1
102
RTVSPropertyOp7
 70
     1
102
RTVSPropertyOp8
 70
     1
102
RTVSPropertyOp9
 70
     1
102
RTVSPropertyOp10
 70
     1
102
RTVSPropertyOp11
 70
     1
102
RTVSPropertyOp12
 70
     1
102
RTVSPropertyOp13
 70
     1
102
RTVSPropertyOp14
 70
     1
102
RTVSPropertyOp15
 70
     1
102
RTVSPropertyOp16
 70
     1
102
RTVSPropertyOp17
 70
     1
102
RTVSPropertyOp18
 70
     1
102
RTVSPropertyOp19
 70
     1
102
RTVSPropertyOp20
 70
     1
102
RTVSPropertyOp21
 70
     1
102
RTVSPropertyOp22
 70
     1
102
RTVSPropertyOp23
 70
     1
102
RTVSPropertyOp24
 70
     1
102
RTVSPropertyOp25
 70
     1
102
RTVSPropertyOp26
 70
     1
102
RTVSPropertyOp27
 70
     1
102
RTVSPropertyOp28
 70
     1
102
RTVSPropertyOp29
 70
     1
102
RTVSPropertyOp30
 70
     1
102
RTVSPropertyOp31
 70
     1
102
RTVSPropertyOp32
 70
     1
102
RTVSPropertyOp33
 70
     1
102
RTVSPropertyOp34
 70
     1
102
RTVSPropertyOp35
 70
     1
102
RTVSPropertyOp36
 70
     1
102
RTVSPropertyOp37
 70
     1
102
RTVSPropertyOp38
 70
     1
102
RTVSPropertyOp39
 70
     1
102
RTVSPropertyOp40
 70
     1
102
RTVSPropertyOp41
 70
     1
102
RTVSPropertyOp42
 70
     1
102
RTVSPropertyOp43
 70
     1
102
RTVSPropertyOp44
 70
     1
102
RTVSPropertyOp45
 70
     1
102
RTVSPropertyOp46
 70
     1
102
RTVSPropertyOp47
 70
     1
102
RTVSPropertyOp48
 70
     1
102
RTVSPropertyOp49
 70
     1
102
RTVSPropertyOp50
 70
     1
102
RTVSPropertyOp51
 70
     0
102
RTVSPropertyOp52
 70
     0
102
RTVSPropertyOp53
 70
     1
102
RTVSPropertyOp54
 70
     1
102
RTVSPropertyOp55
 70
     1
102
RTVSPropertyOp56
 70
     1
102
RTVSPropertyOp57
 70
     1
102
RTVSPropertyOp58
 70
     1
102
RTVSPropertyOp59
 70
     1
102
RTVSPropertyOp60
 70
     1
102
RTVSPropertyOp61
 70
     1
102
RTVSPropertyOp62
 70
     1
  0
XRECORD
  5
204F
102
{ACAD_REACTORS
330
204E
102
}
330
204E
100
AcDbXrecord
280
     1
102
RTVSPost2010Prop28
280
     0
102
RTVSPost2010PropOp28
 70
     1
102
RTVSPost2010Prop29
280
     1
102
RTVSPost2010PropOp29
 70
     1
102
RTVSPost2010Prop30
280
     1
102
RTVSPost2010PropOp30
 70
     1
102
RTVSPost2010Prop31
280
     0
102
RTVSPost2010PropOp31
 70
     1
102
RTVSPost2010Prop32
280
     0
102
RTVSPost2010PropOp32
 70
     1
102
RTVSPost2010Prop33
280
     0
102
RTVSPost2010PropOp33
 70
     1
102
RTVSPost2010Prop34
280
     0
102
RTVSPost2010PropOp34
 70
     1
102
RTVSPost2010Prop35
280
     0
102
RTVSPost2010PropOp35
 70
     1
102
RTVSPost2010Prop36
280
     0
102
RTVSPost2010PropOp36
 70
     1
102
RTVSPost2010Prop37
 90
       50
102
RTVSPost2010PropOp37
 70
     1
102
RTVSPost2010Prop38
140
0.0
102
RTVSPost2010PropOp38
 70
     1
102
RTVSPost2010Prop39
140
1.0
102
RTVSPost2010PropOp39
 70
     1
102
RTVSPost2010Prop40
 90
        0
102
RTVSPost2010PropOp40
 70
     1
102
RTVSPost2010Prop41ColorIndex
 90
       18
102
RTVSPost2010Prop41ColorRGB
 90
        0
102
RTVSPost2010PropOp41
 70
     1
102
RTVSPost2010Prop42
 90
       50
102
RTVSPost2010PropOp42
 70
     1
102
RTVSPost2010Prop43
 90
        3
102
RTVSPost2010PropOp43
 70
     1
102
RTVSPost2010Prop44ColorIndex
 90
        5
102
RTVSPost2010Prop44ColorRGB
 90
      255
102
RTVSPost2010PropOp44
 70
     1
102
RTVSPost2010Prop45
280
     0
102
RTVSPost2010PropOp45
 70
     1
102
RTVSPost2010Prop46
 90
       50
102
RTVSPost2010PropOp46
 70
     1
102
RTVSPost2010Prop47
 90
       50
102
RTVSPost2010PropOp47
 70
     1
102
RTVSPost2010Prop48
 90
       50
102
RTVSPost2010PropOp48
 70
     1
102
RTVSPost2010Prop49
280
     0
102
RTVSPost2010PropOp49
 70
     1
102
RTVSPost2010Prop50
 90
       50
102
RTVSPost2010PropOp50
 70
     1
102
RTVSPost2010Prop51ColorIndex
 90
      256
102
RTVSPost2010Prop51ColorRGB
 90
-16777216
102
RTVSPost2010PropOp51
 70
     0
102
RTVSPost2010Prop52
140
1.0
102
RTVSPost2010PropOp52
 70
     0
102
RTVSPost2010Prop53
 90
        2
102
RTVSPost2010PropOp53
 70
     1
102
RTVSPost2010Prop54
  1
strokes_ogs.tif
102
RTVSPost2010PropOp54
 70
     1
102
RTVSPost2010Prop55
280
     0
102
RTVSPost2010PropOp55
 70
     1
102
RTVSPost2010Prop56
140
1.0
102
RTVSPost2010PropOp56
 70
     1
102
RTVSPost2010Prop57
140
1.0
102
RTVSPost2010PropOp57
 70
     1
102
RTVSPropertyOp0
 70
     1
102
RTVSPropertyOp1
 70
     1
102
RTVSPropertyOp2
 70
     1
102
RTVSPropertyOp3
 70
     1
102
RTVSPropertyOp4
 70
     1
102
RTVSPropertyOp5
 70
     1
102
RTVSPropertyOp6
 70
     1
102
RTVSPropertyOp7
 70
     1
102
RTVSPropertyOp8
 70
     1
102
RTVSPropertyOp9
 70
     1
102
RTVSPropertyOp10
 70
     1
102
RTVSPropertyOp11
 70
     1
102
RTVSPropertyOp12
 70
     1
102
RTVSPropertyOp13
 70
     1
102
RTVSPropertyOp14
 70
     1
102
RTVSPropertyOp15
 70
     1
102
RTVSPropertyOp16
 70
     1
102
RTVSPropertyOp17
 70
     1
102
RTVSPropertyOp18
 70
     1
102
RTVSPropertyOp19
 70
     1
102
RTVSPropertyOp20
 70
     1
102
RTVSPropertyOp21
 70
     1
102
RTVSPropertyOp22
 70
     1
102
RTVSPropertyOp23
 70
     1
102
RTVSPropertyOp24
 70
     1
102
RTVSPropertyOp25
 70
     1
102
RTVSPropertyOp26
 70
     1
102
RTVSPropertyOp27
 70
     1
102
RTVSPropertyOp28
 70
     1
102
RTVSPropertyOp29
 70
     1
102
RTVSPropertyOp30
 70
     1
102
RTVSPropertyOp31
 70
     1
102
RTVSPropertyOp32
 70
     1
102
RTVSPropertyOp33
 70
     1
102
RTVSPropertyOp34
 70
     1
102
RTVSPropertyOp35
 70
     1
102
RTVSPropertyOp36
 70
     1
102
RTVSPropertyOp37
 70
     1
102
RTVSPropertyOp38
 70
     1
102
RTVSPropertyOp39
 70
     1
102
RTVSPropertyOp40
 70
     1
102
RTVSPropertyOp41
 70
     1
102
RTVSPropertyOp42
 70
     1
102
RTVSPropertyOp43
 70
     1
102
RTVSPropertyOp44
 70
     1
102
RTVSPropertyOp45
 70
     1
102
RTVSPropertyOp46
 70
     1
102
RTVSPropertyOp47
 70
     1
102
RTVSPropertyOp48
 70
     1
102
RTVSPropertyOp49
 70
     1
102
RTVSPropertyOp50
 70
     1
102
RTVSPropertyOp51
 70
     0
102
RTVSPropertyOp52
 70
     0
102
RTVSPropertyOp53
 70
     1
102
RTVSPropertyOp54
 70
     1
102
RTVSPropertyOp55
 70
     1
102
RTVSPropertyOp56
 70
     1
102
RTVSPropertyOp57
 70
     1
102
RTVSPropertyOp58
 70
     1
102
RTVSPropertyOp59
 70
     1
102
RTVSPropertyOp60
 70
     1
102
RTVSPropertyOp61
 70
     1
102
RTVSPropertyOp62
 70
     1
  0
XRECORD
  5
2061
102
{ACAD_REACTORS
330
2060
102
}
330
2060
100
AcDbXrecord
280
     1
102
RTVSPost2010Prop28
280
     0
102
RTVSPost2010PropOp28
 70
     1
102
RTVSPost2010Prop29
280
     1
102
RTVSPost2010PropOp29
 70
     1
102
RTVSPost2010Prop30
280
     1
102
RTVSPost2010PropOp30
 70
     1
102
RTVSPost2010Prop31
280
     0
102
RTVSPost2010PropOp31
 70
     1
102
RTVSPost2010Prop32
280
     0
102
RTVSPost2010PropOp32
 70
     1
102
RTVSPost2010Prop33
280
     0
102
RTVSPost2010PropOp33
 70
     1
102
RTVSPost2010Prop34
280
     0
102
RTVSPost2010PropOp34
 70
     1
102
RTVSPost2010Prop35
280
     0
102
RTVSPost2010PropOp35
 70
     1
102
RTVSPost2010Prop36
280
     0
102
RTVSPost2010PropOp36
 70
     1
102
RTVSPost2010Prop37
 90
       50
102
RTVSPost2010PropOp37
 70
     1
102
RTVSPost2010Prop38
140
0.0
102
RTVSPost2010PropOp38
 70
     1
102
RTVSPost2010Prop39
140
1.0
102
RTVSPost2010PropOp39
 70
     1
102
RTVSPost2010Prop40
 90
        0
102
RTVSPost2010PropOp40
 70
     1
102
RTVSPost2010Prop41ColorIndex
 90
       18
102
RTVSPost2010Prop41ColorRGB
 90
        0
102
RTVSPost2010PropOp41
 70
     1
102
RTVSPost2010Prop42
 90
       50
102
RTVSPost2010PropOp42
 70
     1
102
RTVSPost2010Prop43
 90
        3
102
RTVSPost2010PropOp43
 70
     1
102
RTVSPost2010Prop44ColorIndex
 90
        5
102
RTVSPost2010Prop44ColorRGB
 90
      255
102
RTVSPost2010PropOp44
 70
     1
102
RTVSPost2010Prop45
280
     0
102
RTVSPost2010PropOp45
 70
     1
102
RTVSPost2010Prop46
 90
       50
102
RTVSPost2010PropOp46
 70
     1
102
RTVSPost2010Prop47
 90
       50
102
RTVSPost2010PropOp47
 70
     1
102
RTVSPost2010Prop48
 90
       50
102
RTVSPost2010PropOp48
 70
     1
102
RTVSPost2010Prop49
280
     0
102
RTVSPost2010PropOp49
 70
     1
102
RTVSPost2010Prop50
 90
       50
102
RTVSPost2010PropOp50
 70
     1
102
RTVSPost2010Prop51ColorIndex
 90
      256
102
RTVSPost2010Prop51ColorRGB
 90
-16777216
102
RTVSPost2010PropOp51
 70
     0
102
RTVSPost2010Prop52
140
1.0
102
RTVSPost2010PropOp52
 70
     0
102
RTVSPost2010Prop53
 90
        2
102
RTVSPost2010PropOp53
 70
     1
102
RTVSPost2010Prop54
  1
strokes_ogs.tif
102
RTVSPost2010PropOp54
 70
     1
102
RTVSPost2010Prop55
280
     0
102
RTVSPost2010PropOp55
 70
     1
102
RTVSPost2010Prop56
140
1.0
102
RTVSPost2010PropOp56
 70
     1
102
RTVSPost2010Prop57
140
1.0
102
RTVSPost2010PropOp57
 70
     1
102
RTVSPropertyOp0
 70
     0
102
RTVSPropertyOp1
 70
     0
102
RTVSPropertyOp2
 70
     0
102
RTVSPropertyOp3
 70
     0
102
RTVSPropertyOp4
 70
     0
102
RTVSPropertyOp5
 70
     0
102
RTVSPropertyOp6
 70
     0
102
RTVSPropertyOp7
 70
     0
102
RTVSPropertyOp8
 70
     0
102
RTVSPropertyOp9
 70
     0
102
RTVSPropertyOp10
 70
     0
102
RTVSPropertyOp11
 70
     0
102
RTVSPropertyOp12
 70
     0
102
RTVSPropertyOp13
 70
     0
102
RTVSPropertyOp14
 70
     2
102
RTVSPropertyOp15
 70
     0
102
RTVSPropertyOp16
 70
     0
102
RTVSPropertyOp17
 70
     0
102
RTVSPropertyOp18
 70
     0
102
RTVSPropertyOp19
 70
     0
102
RTVSPropertyOp20
 70
     0
102
RTVSPropertyOp21
 70
     0
102
RTVSPropertyOp22
 70
     0
102
RTVSPropertyOp23
 70
     0
102
RTVSPropertyOp24
 70
     0
102
RTVSPropertyOp25
 70
     0
102
RTVSPropertyOp26
 70
     0
102
RTVSPropertyOp27
 70
     0
102
RTVSPropertyOp28
 70
     1
102
RTVSPropertyOp29
 70
     1
102
RTVSPropertyOp30
 70
     1
102
RTVSPropertyOp31
 70
     1
102
RTVSPropertyOp32
 70
     1
102
RTVSPropertyOp33
 70
     1
102
RTVSPropertyOp34
 70
     1
102
RTVSPropertyOp35
 70
     1
102
RTVSPropertyOp36
 70
     1
102
RTVSPropertyOp37
 70
     1
102
RTVSPropertyOp38
 70
     1
102
RTVSPropertyOp39
 70
     1
102
RTVSPropertyOp40
 70
     1
102
RTVSPropertyOp41
 70
     1
102
RTVSPropertyOp42
 70
     1
102
RTVSPropertyOp43
 70
     1
102
RTVSPropertyOp44
 70
     1
102
RTVSPropertyOp45
 70
     1
102
RTVSPropertyOp46
 70
     1
102
RTVSPropertyOp47
 70
     1
102
RTVSPropertyOp48
 70
     1
102
RTVSPropertyOp49
 70
     1
102
RTVSPropertyOp50
 70
     1
102
RTVSPropertyOp51
 70
     0
102
RTVSPropertyOp52
 70
     0
102
RTVSPropertyOp53
 70
     1
102
RTVSPropertyOp54
 70
     1
102
RTVSPropertyOp55
 70
     1
102
RTVSPropertyOp56
 70
     1
102
RTVSPropertyOp57
 70
     1
102
RTVSPropertyOp58
 70
     1
102
RTVSPropertyOp59
 70
     1
102
RTVSPropertyOp60
 70
     1
102
RTVSPropertyOp61
 70
     1
102
RTVSPropertyOp62
 70
     1
  0
XRECORD
  5
2057
102
{ACAD_REACTORS
330
2056
102
}
330
2056
100
AcDbXrecord
280
     1
102
RTVSPost2010Prop28
280
     0
102
RTVSPost2010PropOp28
 70
     1
102
RTVSPost2010Prop29
280
     1
102
RTVSPost2010PropOp29
 70
     1
102
RTVSPost2010Prop30
280
     1
102
RTVSPost2010PropOp30
 70
     1
102
RTVSPost2010Prop31
280
     0
102
RTVSPost2010PropOp31
 70
     1
102
RTVSPost2010Prop32
280
     0
102
RTVSPost2010PropOp32
 70
     1
102
RTVSPost2010Prop33
280
     0
102
RTVSPost2010PropOp33
 70
     1
102
RTVSPost2010Prop34
280
     0
102
RTVSPost2010PropOp34
 70
     1
102
RTVSPost2010Prop35
280
     0
102
RTVSPost2010PropOp35
 70
     1
102
RTVSPost2010Prop36
280
     0
102
RTVSPost2010PropOp36
 70
     1
102
RTVSPost2010Prop37
 90
       50
102
RTVSPost2010PropOp37
 70
     1
102
RTVSPost2010Prop38
140
0.0
102
RTVSPost2010PropOp38
 70
     1
102
RTVSPost2010Prop39
140
1.0
102
RTVSPost2010PropOp39
 70
     1
102
RTVSPost2010Prop40
 90
        0
102
RTVSPost2010PropOp40
 70
     1
102
RTVSPost2010Prop41ColorIndex
 90
       18
102
RTVSPost2010Prop41ColorRGB
 90
        0
102
RTVSPost2010PropOp41
 70
     1
102
RTVSPost2010Prop42
 90
       50
102
RTVSPost2010PropOp42
 70
     1
102
RTVSPost2010Prop43
 90
        3
102
RTVSPost2010PropOp43
 70
     1
102
RTVSPost2010Prop44ColorIndex
 90
        5
102
RTVSPost2010Prop44ColorRGB
 90
      255
102
RTVSPost2010PropOp44
 70
     1
102
RTVSPost2010Prop45
280
     0
102
RTVSPost2010PropOp45
 70
     1
102
RTVSPost2010Prop46
 90
       50
102
RTVSPost2010PropOp46
 70
     1
102
RTVSPost2010Prop47
 90
       50
102
RTVSPost2010PropOp47
 70
     1
102
RTVSPost2010Prop48
 90
       50
102
RTVSPost2010PropOp48
 70
     1
102
RTVSPost2010Prop49
280
     0
102
RTVSPost2010PropOp49
 70
     1
102
RTVSPost2010Prop50
 90
       50
102
RTVSPost2010PropOp50
 70
     1
102
RTVSPost2010Prop51ColorIndex
 90
      256
102
RTVSPost2010Prop51ColorRGB
 90
-16777216
102
RTVSPost2010PropOp51
 70
     0
102
RTVSPost2010Prop52
140
1.0
102
RTVSPost2010PropOp52
 70
     0
102
RTVSPost2010Prop53
 90
        2
102
RTVSPost2010PropOp53
 70
     1
102
RTVSPost2010Prop54
  1
strokes_ogs.tif
102
RTVSPost2010PropOp54
 70
     1
102
RTVSPost2010Prop55
280
     0
102
RTVSPost2010PropOp55
 70
     1
102
RTVSPost2010Prop56
140
1.0
102
RTVSPost2010PropOp56
 70
     1
102
RTVSPost2010Prop57
140
1.0
102
RTVSPost2010PropOp57
 70
     1
102
RTVSPropertyOp0
 70
     1
102
RTVSPropertyOp1
 70
     1
102
RTVSPropertyOp2
 70
     1
102
RTVSPropertyOp3
 70
     1
102
RTVSPropertyOp4
 70
     1
102
RTVSPropertyOp5
 70
     1
102
RTVSPropertyOp6
 70
     1
102
RTVSPropertyOp7
 70
     1
102
RTVSPropertyOp8
 70
     1
102
RTVSPropertyOp9
 70
     1
102
RTVSPropertyOp10
 70
     1
102
RTVSPropertyOp11
 70
     1
102
RTVSPropertyOp12
 70
     1
102
RTVSPropertyOp13
 70
     1
102
RTVSPropertyOp14
 70
     1
102
RTVSPropertyOp15
 70
     1
102
RTVSPropertyOp16
 70
     1
102
RTVSPropertyOp17
 70
     1
102
RTVSPropertyOp18
 70
     1
102
RTVSPropertyOp19
 70
     1
102
RTVSPropertyOp20
 70
     1
102
RTVSPropertyOp21
 70
     1
102
RTVSPropertyOp22
 70
     1
102
RTVSPropertyOp23
 70
     1
102
RTVSPropertyOp24
 70
     1
102
RTVSPropertyOp25
 70
     1
102
RTVSPropertyOp26
 70
     1
102
RTVSPropertyOp27
 70
     1
102
RTVSPropertyOp28
 70
     1
102
RTVSPropertyOp29
 70
     1
102
RTVSPropertyOp30
 70
     1
102
RTVSPropertyOp31
 70
     1
102
RTVSPropertyOp32
 70
     1
102
RTVSPropertyOp33
 70
     1
102
RTVSPropertyOp34
 70
     1
102
RTVSPropertyOp35
 70
     1
102
RTVSPropertyOp36
 70
     1
102
RTVSPropertyOp37
 70
     1
102
RTVSPropertyOp38
 70
     1
102
RTVSPropertyOp39
 70
     1
102
RTVSPropertyOp40
 70
     1
102
RTVSPropertyOp41
 70
     1
102
RTVSPropertyOp42
 70
     1
102
RTVSPropertyOp43
 70
     1
102
RTVSPropertyOp44
 70
     1
102
RTVSPropertyOp45
 70
     1
102
RTVSPropertyOp46
 70
     1
102
RTVSPropertyOp47
 70
     1
102
RTVSPropertyOp48
 70
     1
102
RTVSPropertyOp49
 70
     1
102
RTVSPropertyOp50
 70
     1
102
RTVSPropertyOp51
 70
     0
102
RTVSPropertyOp52
 70
     0
102
RTVSPropertyOp53
 70
     1
102
RTVSPropertyOp54
 70
     1
102
RTVSPropertyOp55
 70
     1
102
RTVSPropertyOp56
 70
     1
102
RTVSPropertyOp57
 70
     1
102
RTVSPropertyOp58
 70
     1
102
RTVSPropertyOp59
 70
     1
102
RTVSPropertyOp60
 70
     1
102
RTVSPropertyOp61
 70
     1
102
RTVSPropertyOp62
 70
     1
  0
XRECORD
  5
203B
102
{ACAD_REACTORS
330
203A
102
}
330
203A
100
AcDbXrecord
280
     1
102
RTVSPost2010Prop28
280
     0
102
RTVSPost2010PropOp28
 70
     1
102
RTVSPost2010Prop29
280
     1
102
RTVSPost2010PropOp29
 70
     1
102
RTVSPost2010Prop30
280
     1
102
RTVSPost2010PropOp30
 70
     1
102
RTVSPost2010Prop31
280
     0
102
RTVSPost2010PropOp31
 70
     1
102
RTVSPost2010Prop32
280
     0
102
RTVSPost2010PropOp32
 70
     1
102
RTVSPost2010Prop33
280
     0
102
RTVSPost2010PropOp33
 70
     1
102
RTVSPost2010Prop34
280
     0
102
RTVSPost2010PropOp34
 70
     1
102
RTVSPost2010Prop35
280
     0
102
RTVSPost2010PropOp35
 70
     1
102
RTVSPost2010Prop36
280
     0
102
RTVSPost2010PropOp36
 70
     1
102
RTVSPost2010Prop37
 90
       50
102
RTVSPost2010PropOp37
 70
     1
102
RTVSPost2010Prop38
140
0.0
102
RTVSPost2010PropOp38
 70
     1
102
RTVSPost2010Prop39
140
1.0
102
RTVSPost2010PropOp39
 70
     1
102
RTVSPost2010Prop40
 90
        0
102
RTVSPost2010PropOp40
 70
     1
102
RTVSPost2010Prop41ColorIndex
 90
       18
102
RTVSPost2010Prop41ColorRGB
 90
        0
102
RTVSPost2010PropOp41
 70
     1
102
RTVSPost2010Prop42
 90
       50
102
RTVSPost2010PropOp42
 70
     1
102
RTVSPost2010Prop43
 90
        3
102
RTVSPost2010PropOp43
 70
     1
102
RTVSPost2010Prop44ColorIndex
 90
        5
102
RTVSPost2010Prop44ColorRGB
 90
      255
102
RTVSPost2010PropOp44
 70
     1
102
RTVSPost2010Prop45
280
     0
102
RTVSPost2010PropOp45
 70
     1
102
RTVSPost2010Prop46
 90
       50
102
RTVSPost2010PropOp46
 70
     1
102
RTVSPost2010Prop47
 90
       50
102
RTVSPost2010PropOp47
 70
     1
102
RTVSPost2010Prop48
 90
       50
102
RTVSPost2010PropOp48
 70
     1
102
RTVSPost2010Prop49
280
     0
102
RTVSPost2010PropOp49
 70
     1
102
RTVSPost2010Prop50
 90
       50
102
RTVSPost2010PropOp50
 70
     1
102
RTVSPost2010Prop51ColorIndex
 90
      256
102
RTVSPost2010Prop51ColorRGB
 90
-16777216
102
RTVSPost2010PropOp51
 70
     0
102
RTVSPost2010Prop52
140
1.0
102
RTVSPost2010PropOp52
 70
     0
102
RTVSPost2010Prop53
 90
        2
102
RTVSPost2010PropOp53
 70
     1
102
RTVSPost2010Prop54
  1
strokes_ogs.tif
102
RTVSPost2010PropOp54
 70
     1
102
RTVSPost2010Prop55
280
     0
102
RTVSPost2010PropOp55
 70
     1
102
RTVSPost2010Prop56
140
1.0
102
RTVSPost2010PropOp56
 70
     1
102
RTVSPost2010Prop57
140
1.0
102
RTVSPost2010PropOp57
 70
     1
102
RTVSPropertyOp0
 70
     1
102
RTVSPropertyOp1
 70
     1
102
RTVSPropertyOp2
 70
     1
102
RTVSPropertyOp3
 70
     1
102
RTVSPropertyOp4
 70
     1
102
RTVSPropertyOp5
 70
     1
102
RTVSPropertyOp6
 70
     1
102
RTVSPropertyOp7
 70
     1
102
RTVSPropertyOp8
 70
     1
102
RTVSPropertyOp9
 70
     1
102
RTVSPropertyOp10
 70
     1
102
RTVSPropertyOp11
 70
     1
102
RTVSPropertyOp12
 70
     1
102
RTVSPropertyOp13
 70
     1
102
RTVSPropertyOp14
 70
     1
102
RTVSPropertyOp15
 70
     1
102
RTVSPropertyOp16
 70
     1
102
RTVSPropertyOp17
 70
     1
102
RTVSPropertyOp18
 70
     1
102
RTVSPropertyOp19
 70
     1
102
RTVSPropertyOp20
 70
     1
102
RTVSPropertyOp21
 70
     1
102
RTVSPropertyOp22
 70
     1
102
RTVSPropertyOp23
 70
     1
102
RTVSPropertyOp24
 70
     1
102
RTVSPropertyOp25
 70
     1
102
RTVSPropertyOp26
 70
     1
102
RTVSPropertyOp27
 70
     1
102
RTVSPropertyOp28
 70
     1
102
RTVSPropertyOp29
 70
     1
102
RTVSPropertyOp30
 70
     1
102
RTVSPropertyOp31
 70
     1
102
RTVSPropertyOp32
 70
     1
102
RTVSPropertyOp33
 70
     1
102
RTVSPropertyOp34
 70
     1
102
RTVSPropertyOp35
 70
     1
102
RTVSPropertyOp36
 70
     1
102
RTVSPropertyOp37
 70
     1
102
RTVSPropertyOp38
 70
     1
102
RTVSPropertyOp39
 70
     1
102
RTVSPropertyOp40
 70
     1
102
RTVSPropertyOp41
 70
     1
102
RTVSPropertyOp42
 70
     1
102
RTVSPropertyOp43
 70
     1
102
RTVSPropertyOp44
 70
     1
102
RTVSPropertyOp45
 70
     1
102
RTVSPropertyOp46
 70
     1
102
RTVSPropertyOp47
 70
     1
102
RTVSPropertyOp48
 70
     1
102
RTVSPropertyOp49
 70
     1
102
RTVSPropertyOp50
 70
     1
102
RTVSPropertyOp51
 70
     0
102
RTVSPropertyOp52
 70
     0
102
RTVSPropertyOp53
 70
     1
102
RTVSPropertyOp54
 70
     1
102
RTVSPropertyOp55
 70
     1
102
RTVSPropertyOp56
 70
     1
102
RTVSPropertyOp57
 70
     1
102
RTVSPropertyOp58
 70
     1
102
RTVSPropertyOp59
 70
     1
102
RTVSPropertyOp60
 70
     1
102
RTVSPropertyOp61
 70
     1
102
RTVSPropertyOp62
 70
     1
  0
XRECORD
  5
203D
102
{ACAD_REACTORS
330
203C
102
}
330
203C
100
AcDbXrecord
280
     1
102
RTVSPost2010Prop28
280
     0
102
RTVSPost2010PropOp28
 70
     1
102
RTVSPost2010Prop29
280
     1
102
RTVSPost2010PropOp29
 70
     1
102
RTVSPost2010Prop30
280
     1
102
RTVSPost2010PropOp30
 70
     1
102
RTVSPost2010Prop31
280
     0
102
RTVSPost2010PropOp31
 70
     1
102
RTVSPost2010Prop32
280
     0
102
RTVSPost2010PropOp32
 70
     1
102
RTVSPost2010Prop33
280
     0
102
RTVSPost2010PropOp33
 70
     1
102
RTVSPost2010Prop34
280
     0
102
RTVSPost2010PropOp34
 70
     1
102
RTVSPost2010Prop35
280
     0
102
RTVSPost2010PropOp35
 70
     1
102
RTVSPost2010Prop36
280
     0
102
RTVSPost2010PropOp36
 70
     1
102
RTVSPost2010Prop37
 90
       50
102
RTVSPost2010PropOp37
 70
     1
102
RTVSPost2010Prop38
140
0.0
102
RTVSPost2010PropOp38
 70
     1
102
RTVSPost2010Prop39
140
1.0
102
RTVSPost2010PropOp39
 70
     1
102
RTVSPost2010Prop40
 90
        0
102
RTVSPost2010PropOp40
 70
     1
102
RTVSPost2010Prop41ColorIndex
 90
       18
102
RTVSPost2010Prop41ColorRGB
 90
        0
102
RTVSPost2010PropOp41
 70
     1
102
RTVSPost2010Prop42
 90
       50
102
RTVSPost2010PropOp42
 70
     1
102
RTVSPost2010Prop43
 90
        3
102
RTVSPost2010PropOp43
 70
     1
102
RTVSPost2010Prop44ColorIndex
 90
        5
102
RTVSPost2010Prop44ColorRGB
 90
      255
102
RTVSPost2010PropOp44
 70
     1
102
RTVSPost2010Prop45
280
     0
102
RTVSPost2010PropOp45
 70
     1
102
RTVSPost2010Prop46
 90
       50
102
RTVSPost2010PropOp46
 70
     1
102
RTVSPost2010Prop47
 90
       50
102
RTVSPost2010PropOp47
 70
     1
102
RTVSPost2010Prop48
 90
       50
102
RTVSPost2010PropOp48
 70
     1
102
RTVSPost2010Prop49
280
     0
102
RTVSPost2010PropOp49
 70
     1
102
RTVSPost2010Prop50
 90
       50
102
RTVSPost2010PropOp50
 70
     1
102
RTVSPost2010Prop51ColorIndex
 90
      256
102
RTVSPost2010Prop51ColorRGB
 90
-16777216
102
RTVSPost2010PropOp51
 70
     0
102
RTVSPost2010Prop52
140
1.0
102
RTVSPost2010PropOp52
 70
     0
102
RTVSPost2010Prop53
 90
        2
102
RTVSPost2010PropOp53
 70
     1
102
RTVSPost2010Prop54
  1
strokes_ogs.tif
102
RTVSPost2010PropOp54
 70
     1
102
RTVSPost2010Prop55
280
     0
102
RTVSPost2010PropOp55
 70
     1
102
RTVSPost2010Prop56
140
1.0
102
RTVSPost2010PropOp56
 70
     1
102
RTVSPost2010Prop57
140
1.0
102
RTVSPost2010PropOp57
 70
     1
102
RTVSPropertyOp0
 70
     1
102
RTVSPropertyOp1
 70
     1
102
RTVSPropertyOp2
 70
     1
102
RTVSPropertyOp3
 70
     1
102
RTVSPropertyOp4
 70
     1
102
RTVSPropertyOp5
 70
     1
102
RTVSPropertyOp6
 70
     1
102
RTVSPropertyOp7
 70
     1
102
RTVSPropertyOp8
 70
     1
102
RTVSPropertyOp9
 70
     1
102
RTVSPropertyOp10
 70
     1
102
RTVSPropertyOp11
 70
     1
102
RTVSPropertyOp12
 70
     1
102
RTVSPropertyOp13
 70
     1
102
RTVSPropertyOp14
 70
     1
102
RTVSPropertyOp15
 70
     1
102
RTVSPropertyOp16
 70
     1
102
RTVSPropertyOp17
 70
     1
102
RTVSPropertyOp18
 70
     1
102
RTVSPropertyOp19
 70
     1
102
RTVSPropertyOp20
 70
     1
102
RTVSPropertyOp21
 70
     1
102
RTVSPropertyOp22
 70
     1
102
RTVSPropertyOp23
 70
     1
102
RTVSPropertyOp24
 70
     1
102
RTVSPropertyOp25
 70
     1
102
RTVSPropertyOp26
 70
     1
102
RTVSPropertyOp27
 70
     1
102
RTVSPropertyOp28
 70
     1
102
RTVSPropertyOp29
 70
     1
102
RTVSPropertyOp30
 70
     1
102
RTVSPropertyOp31
 70
     1
102
RTVSPropertyOp32
 70
     1
102
RTVSPropertyOp33
 70
     1
102
RTVSPropertyOp34
 70
     1
102
RTVSPropertyOp35
 70
     1
102
RTVSPropertyOp36
 70
     1
102
RTVSPropertyOp37
 70
     1
102
RTVSPropertyOp38
 70
     1
102
RTVSPropertyOp39
 70
     1
102
RTVSPropertyOp40
 70
     1
102
RTVSPropertyOp41
 70
     1
102
RTVSPropertyOp42
 70
     1
102
RTVSPropertyOp43
 70
     1
102
RTVSPropertyOp44
 70
     1
102
RTVSPropertyOp45
 70
     1
102
RTVSPropertyOp46
 70
     1
102
RTVSPropertyOp47
 70
     1
102
RTVSPropertyOp48
 70
     1
102
RTVSPropertyOp49
 70
     1
102
RTVSPropertyOp50
 70
     1
102
RTVSPropertyOp51
 70
     0
102
RTVSPropertyOp52
 70
     0
102
RTVSPropertyOp53
 70
     1
102
RTVSPropertyOp54
 70
     1
102
RTVSPropertyOp55
 70
     1
102
RTVSPropertyOp56
 70
     1
102
RTVSPropertyOp57
 70
     1
102
RTVSPropertyOp58
 70
     1
102
RTVSPropertyOp59
 70
     1
102
RTVSPropertyOp60
 70
     1
102
RTVSPropertyOp61
 70
     1
102
RTVSPropertyOp62
 70
     1
  0
XRECORD
  5
203F
102
{ACAD_REACTORS
330
203E
102
}
330
203E
100
AcDbXrecord
280
     1
102
RTVSPost2010Prop28
280
     0
102
RTVSPost2010PropOp28
 70
     1
102
RTVSPost2010Prop29
280
     1
102
RTVSPost2010PropOp29
 70
     1
102
RTVSPost2010Prop30
280
     1
102
RTVSPost2010PropOp30
 70
     1
102
RTVSPost2010Prop31
280
     0
102
RTVSPost2010PropOp31
 70
     1
102
RTVSPost2010Prop32
280
     0
102
RTVSPost2010PropOp32
 70
     1
102
RTVSPost2010Prop33
280
     0
102
RTVSPost2010PropOp33
 70
     1
102
RTVSPost2010Prop34
280
     0
102
RTVSPost2010PropOp34
 70
     1
102
RTVSPost2010Prop35
280
     0
102
RTVSPost2010PropOp35
 70
     1
102
RTVSPost2010Prop36
280
     0
102
RTVSPost2010PropOp36
 70
     1
102
RTVSPost2010Prop37
 90
       50
102
RTVSPost2010PropOp37
 70
     1
102
RTVSPost2010Prop38
140
0.0
102
RTVSPost2010PropOp38
 70
     1
102
RTVSPost2010Prop39
140
1.0
102
RTVSPost2010PropOp39
 70
     1
102
RTVSPost2010Prop40
 90
        0
102
RTVSPost2010PropOp40
 70
     1
102
RTVSPost2010Prop41ColorIndex
 90
       18
102
RTVSPost2010Prop41ColorRGB
 90
        0
102
RTVSPost2010PropOp41
 70
     1
102
RTVSPost2010Prop42
 90
       50
102
RTVSPost2010PropOp42
 70
     1
102
RTVSPost2010Prop43
 90
        3
102
RTVSPost2010PropOp43
 70
     1
102
RTVSPost2010Prop44ColorIndex
 90
        5
102
RTVSPost2010Prop44ColorRGB
 90
      255
102
RTVSPost2010PropOp44
 70
     1
102
RTVSPost2010Prop45
280
     0
102
RTVSPost2010PropOp45
 70
     1
102
RTVSPost2010Prop46
 90
       50
102
RTVSPost2010PropOp46
 70
     1
102
RTVSPost2010Prop47
 90
       50
102
RTVSPost2010PropOp47
 70
     1
102
RTVSPost2010Prop48
 90
       50
102
RTVSPost2010PropOp48
 70
     1
102
RTVSPost2010Prop49
280
     0
102
RTVSPost2010PropOp49
 70
     1
102
RTVSPost2010Prop50
 90
       50
102
RTVSPost2010PropOp50
 70
     1
102
RTVSPost2010Prop51ColorIndex
 90
      256
102
RTVSPost2010Prop51ColorRGB
 90
-16777216
102
RTVSPost2010PropOp51
 70
     0
102
RTVSPost2010Prop52
140
1.0
102
RTVSPost2010PropOp52
 70
     0
102
RTVSPost2010Prop53
 90
        2
102
RTVSPost2010PropOp53
 70
     1
102
RTVSPost2010Prop54
  1
strokes_ogs.tif
102
RTVSPost2010PropOp54
 70
     1
102
RTVSPost2010Prop55
280
     0
102
RTVSPost2010PropOp55
 70
     1
102
RTVSPost2010Prop56
140
1.0
102
RTVSPost2010PropOp56
 70
     1
102
RTVSPost2010Prop57
140
1.0
102
RTVSPost2010PropOp57
 70
     1
102
RTVSPropertyOp0
 70
     1
102
RTVSPropertyOp1
 70
     1
102
RTVSPropertyOp2
 70
     1
102
RTVSPropertyOp3
 70
     1
102
RTVSPropertyOp4
 70
     1
102
RTVSPropertyOp5
 70
     1
102
RTVSPropertyOp6
 70
     1
102
RTVSPropertyOp7
 70
     1
102
RTVSPropertyOp8
 70
     1
102
RTVSPropertyOp9
 70
     1
102
RTVSPropertyOp10
 70
     1
102
RTVSPropertyOp11
 70
     1
102
RTVSPropertyOp12
 70
     1
102
RTVSPropertyOp13
 70
     1
102
RTVSPropertyOp14
 70
     1
102
RTVSPropertyOp15
 70
     1
102
RTVSPropertyOp16
 70
     1
102
RTVSPropertyOp17
 70
     1
102
RTVSPropertyOp18
 70
     1
102
RTVSPropertyOp19
 70
     1
102
RTVSPropertyOp20
 70
     1
102
RTVSPropertyOp21
 70
     1
102
RTVSPropertyOp22
 70
     1
102
RTVSPropertyOp23
 70
     1
102
RTVSPropertyOp24
 70
     1
102
RTVSPropertyOp25
 70
     1
102
RTVSPropertyOp26
 70
     1
102
RTVSPropertyOp27
 70
     1
102
RTVSPropertyOp28
 70
     1
102
RTVSPropertyOp29
 70
     1
102
RTVSPropertyOp30
 70
     1
102
RTVSPropertyOp31
 70
     1
102
RTVSPropertyOp32
 70
     1
102
RTVSPropertyOp33
 70
     1
102
RTVSPropertyOp34
 70
     1
102
RTVSPropertyOp35
 70
     1
102
RTVSPropertyOp36
 70
     1
102
RTVSPropertyOp37
 70
     1
102
RTVSPropertyOp38
 70
     1
102
RTVSPropertyOp39
 70
     1
102
RTVSPropertyOp40
 70
     1
102
RTVSPropertyOp41
 70
     1
102
RTVSPropertyOp42
 70
     1
102
RTVSPropertyOp43
 70
     1
102
RTVSPropertyOp44
 70
     1
102
RTVSPropertyOp45
 70
     1
102
RTVSPropertyOp46
 70
     1
102
RTVSPropertyOp47
 70
     1
102
RTVSPropertyOp48
 70
     1
102
RTVSPropertyOp49
 70
     1
102
RTVSPropertyOp50
 70
     1
102
RTVSPropertyOp51
 70
     0
102
RTVSPropertyOp52
 70
     0
102
RTVSPropertyOp53
 70
     1
102
RTVSPropertyOp54
 70
     1
102
RTVSPropertyOp55
 70
     1
102
RTVSPropertyOp56
 70
     1
102
RTVSPropertyOp57
 70
     1
102
RTVSPropertyOp58
 70
     1
102
RTVSPropertyOp59
 70
     1
102
RTVSPropertyOp60
 70
     1
102
RTVSPropertyOp61
 70
     1
102
RTVSPropertyOp62
 70
     1
  0
XRECORD
  5
2041
102
{ACAD_REACTORS
330
2040
102
}
330
2040
100
AcDbXrecord
280
     1
102
RTVSPost2010Prop28
280
     0
102
RTVSPost2010PropOp28
 70
     1
102
RTVSPost2010Prop29
280
     1
102
RTVSPost2010PropOp29
 70
     1
102
RTVSPost2010Prop30
280
     1
102
RTVSPost2010PropOp30
 70
     1
102
RTVSPost2010Prop31
280
     0
102
RTVSPost2010PropOp31
 70
     1
102
RTVSPost2010Prop32
280
     0
102
RTVSPost2010PropOp32
 70
     1
102
RTVSPost2010Prop33
280
     0
102
RTVSPost2010PropOp33
 70
     1
102
RTVSPost2010Prop34
280
     0
102
RTVSPost2010PropOp34
 70
     1
102
RTVSPost2010Prop35
280
     0
102
RTVSPost2010PropOp35
 70
     1
102
RTVSPost2010Prop36
280
     0
102
RTVSPost2010PropOp36
 70
     1
102
RTVSPost2010Prop37
 90
       50
102
RTVSPost2010PropOp37
 70
     1
102
RTVSPost2010Prop38
140
0.0
102
RTVSPost2010PropOp38
 70
     1
102
RTVSPost2010Prop39
140
1.0
102
RTVSPost2010PropOp39
 70
     1
102
RTVSPost2010Prop40
 90
        0
102
RTVSPost2010PropOp40
 70
     1
102
RTVSPost2010Prop41ColorIndex
 90
       18
102
RTVSPost2010Prop41ColorRGB
 90
        0
102
RTVSPost2010PropOp41
 70
     1
102
RTVSPost2010Prop42
 90
       50
102
RTVSPost2010PropOp42
 70
     1
102
RTVSPost2010Prop43
 90
        3
102
RTVSPost2010PropOp43
 70
     1
102
RTVSPost2010Prop44ColorIndex
 90
        5
102
RTVSPost2010Prop44ColorRGB
 90
      255
102
RTVSPost2010PropOp44
 70
     1
102
RTVSPost2010Prop45
280
     0
102
RTVSPost2010PropOp45
 70
     1
102
RTVSPost2010Prop46
 90
       50
102
RTVSPost2010PropOp46
 70
     1
102
RTVSPost2010Prop47
 90
       50
102
RTVSPost2010PropOp47
 70
     1
102
RTVSPost2010Prop48
 90
       50
102
RTVSPost2010PropOp48
 70
     1
102
RTVSPost2010Prop49
280
     0
102
RTVSPost2010PropOp49
 70
     1
102
RTVSPost2010Prop50
 90
       50
102
RTVSPost2010PropOp50
 70
     1
102
RTVSPost2010Prop51ColorIndex
 90
      256
102
RTVSPost2010Prop51ColorRGB
 90
-16777216
102
RTVSPost2010PropOp51
 70
     0
102
RTVSPost2010Prop52
140
1.0
102
RTVSPost2010PropOp52
 70
     0
102
RTVSPost2010Prop53
 90
        2
102
RTVSPost2010PropOp53
 70
     1
102
RTVSPost2010Prop54
  1
strokes_ogs.tif
102
RTVSPost2010PropOp54
 70
     1
102
RTVSPost2010Prop55
280
     0
102
RTVSPost2010PropOp55
 70
     1
102
RTVSPost2010Prop56
140
1.0
102
RTVSPost2010PropOp56
 70
     1
102
RTVSPost2010Prop57
140
1.0
102
RTVSPost2010PropOp57
 70
     1
102
RTVSPropertyOp0
 70
     1
102
RTVSPropertyOp1
 70
     1
102
RTVSPropertyOp2
 70
     1
102
RTVSPropertyOp3
 70
     1
102
RTVSPropertyOp4
 70
     1
102
RTVSPropertyOp5
 70
     1
102
RTVSPropertyOp6
 70
     1
102
RTVSPropertyOp7
 70
     1
102
RTVSPropertyOp8
 70
     1
102
RTVSPropertyOp9
 70
     1
102
RTVSPropertyOp10
 70
     1
102
RTVSPropertyOp11
 70
     1
102
RTVSPropertyOp12
 70
     1
102
RTVSPropertyOp13
 70
     1
102
RTVSPropertyOp14
 70
     1
102
RTVSPropertyOp15
 70
     1
102
RTVSPropertyOp16
 70
     1
102
RTVSPropertyOp17
 70
     1
102
RTVSPropertyOp18
 70
     1
102
RTVSPropertyOp19
 70
     1
102
RTVSPropertyOp20
 70
     1
102
RTVSPropertyOp21
 70
     1
102
RTVSPropertyOp22
 70
     1
102
RTVSPropertyOp23
 70
     1
102
RTVSPropertyOp24
 70
     1
102
RTVSPropertyOp25
 70
     1
102
RTVSPropertyOp26
 70
     1
102
RTVSPropertyOp27
 70
     1
102
RTVSPropertyOp28
 70
     1
102
RTVSPropertyOp29
 70
     1
102
RTVSPropertyOp30
 70
     1
102
RTVSPropertyOp31
 70
     1
102
RTVSPropertyOp32
 70
     1
102
RTVSPropertyOp33
 70
     1
102
RTVSPropertyOp34
 70
     1
102
RTVSPropertyOp35
 70
     1
102
RTVSPropertyOp36
 70
     1
102
RTVSPropertyOp37
 70
     1
102
RTVSPropertyOp38
 70
     1
102
RTVSPropertyOp39
 70
     1
102
RTVSPropertyOp40
 70
     1
102
RTVSPropertyOp41
 70
     1
102
RTVSPropertyOp42
 70
     1
102
RTVSPropertyOp43
 70
     1
102
RTVSPropertyOp44
 70
     1
102
RTVSPropertyOp45
 70
     1
102
RTVSPropertyOp46
 70
     1
102
RTVSPropertyOp47
 70
     1
102
RTVSPropertyOp48
 70
     1
102
RTVSPropertyOp49
 70
     1
102
RTVSPropertyOp50
 70
     1
102
RTVSPropertyOp51
 70
     0
102
RTVSPropertyOp52
 70
     0
102
RTVSPropertyOp53
 70
     1
102
RTVSPropertyOp54
 70
     1
102
RTVSPropertyOp55
 70
     1
102
RTVSPropertyOp56
 70
     1
102
RTVSPropertyOp57
 70
     1
102
RTVSPropertyOp58
 70
     1
102
RTVSPropertyOp59
 70
     1
102
RTVSPropertyOp60
 70
     1
102
RTVSPropertyOp61
 70
     1
102
RTVSPropertyOp62
 70
     1
  0
XRECORD
  5
2049
102
{ACAD_REACTORS
330
2048
102
}
330
2048
100
AcDbXrecord
280
     1
102
RTVSPost2010Prop28
280
     0
102
RTVSPost2010PropOp28
 70
     1
102
RTVSPost2010Prop29
280
     1
102
RTVSPost2010PropOp29
 70
     1
102
RTVSPost2010Prop30
280
     1
102
RTVSPost2010PropOp30
 70
     1
102
RTVSPost2010Prop31
280
     0
102
RTVSPost2010PropOp31
 70
     1
102
RTVSPost2010Prop32
280
     0
102
RTVSPost2010PropOp32
 70
     1
102
RTVSPost2010Prop33
280
     0
102
RTVSPost2010PropOp33
 70
     1
102
RTVSPost2010Prop34
280
     0
102
RTVSPost2010PropOp34
 70
     1
102
RTVSPost2010Prop35
280
     0
102
RTVSPost2010PropOp35
 70
     1
102
RTVSPost2010Prop36
280
     0
102
RTVSPost2010PropOp36
 70
     1
102
RTVSPost2010Prop37
 90
       50
102
RTVSPost2010PropOp37
 70
     1
102
RTVSPost2010Prop38
140
0.0
102
RTVSPost2010PropOp38
 70
     1
102
RTVSPost2010Prop39
140
1.0
102
RTVSPost2010PropOp39
 70
     1
102
RTVSPost2010Prop40
 90
        0
102
RTVSPost2010PropOp40
 70
     1
102
RTVSPost2010Prop41ColorIndex
 90
       18
102
RTVSPost2010Prop41ColorRGB
 90
        0
102
RTVSPost2010PropOp41
 70
     1
102
RTVSPost2010Prop42
 90
       50
102
RTVSPost2010PropOp42
 70
     1
102
RTVSPost2010Prop43
 90
        3
102
RTVSPost2010PropOp43
 70
     1
102
RTVSPost2010Prop44ColorIndex
 90
        5
102
RTVSPost2010Prop44ColorRGB
 90
      255
102
RTVSPost2010PropOp44
 70
     1
102
RTVSPost2010Prop45
280
     0
102
RTVSPost2010PropOp45
 70
     1
102
RTVSPost2010Prop46
 90
       50
102
RTVSPost2010PropOp46
 70
     1
102
RTVSPost2010Prop47
 90
       50
102
RTVSPost2010PropOp47
 70
     1
102
RTVSPost2010Prop48
 90
       50
102
RTVSPost2010PropOp48
 70
     1
102
RTVSPost2010Prop49
280
     0
102
RTVSPost2010PropOp49
 70
     1
102
RTVSPost2010Prop50
 90
       50
102
RTVSPost2010PropOp50
 70
     1
102
RTVSPost2010Prop51ColorIndex
 90
      256
102
RTVSPost2010Prop51ColorRGB
 90
-16777216
102
RTVSPost2010PropOp51
 70
     0
102
RTVSPost2010Prop52
140
1.0
102
RTVSPost2010PropOp52
 70
     0
102
RTVSPost2010Prop53
 90
        2
102
RTVSPost2010PropOp53
 70
     1
102
RTVSPost2010Prop54
  1
strokes_ogs.tif
102
RTVSPost2010PropOp54
 70
     1
102
RTVSPost2010Prop55
280
     0
102
RTVSPost2010PropOp55
 70
     1
102
RTVSPost2010Prop56
140
1.0
102
RTVSPost2010PropOp56
 70
     1
102
RTVSPost2010Prop57
140
1.0
102
RTVSPost2010PropOp57
 70
     1
102
RTVSPropertyOp0
 70
     1
102
RTVSPropertyOp1
 70
     1
102
RTVSPropertyOp2
 70
     1
102
RTVSPropertyOp3
 70
     1
102
RTVSPropertyOp4
 70
     1
102
RTVSPropertyOp5
 70
     1
102
RTVSPropertyOp6
 70
     1
102
RTVSPropertyOp7
 70
     1
102
RTVSPropertyOp8
 70
     1
102
RTVSPropertyOp9
 70
     1
102
RTVSPropertyOp10
 70
     1
102
RTVSPropertyOp11
 70
     1
102
RTVSPropertyOp12
 70
     1
102
RTVSPropertyOp13
 70
     1
102
RTVSPropertyOp14
 70
     1
102
RTVSPropertyOp15
 70
     1
102
RTVSPropertyOp16
 70
     1
102
RTVSPropertyOp17
 70
     1
102
RTVSPropertyOp18
 70
     1
102
RTVSPropertyOp19
 70
     1
102
RTVSPropertyOp20
 70
     1
102
RTVSPropertyOp21
 70
     1
102
RTVSPropertyOp22
 70
     1
102
RTVSPropertyOp23
 70
     1
102
RTVSPropertyOp24
 70
     1
102
RTVSPropertyOp25
 70
     1
102
RTVSPropertyOp26
 70
     1
102
RTVSPropertyOp27
 70
     1
102
RTVSPropertyOp28
 70
     1
102
RTVSPropertyOp29
 70
     1
102
RTVSPropertyOp30
 70
     1
102
RTVSPropertyOp31
 70
     1
102
RTVSPropertyOp32
 70
     1
102
RTVSPropertyOp33
 70
     1
102
RTVSPropertyOp34
 70
     1
102
RTVSPropertyOp35
 70
     1
102
RTVSPropertyOp36
 70
     1
102
RTVSPropertyOp37
 70
     1
102
RTVSPropertyOp38
 70
     1
102
RTVSPropertyOp39
 70
     1
102
RTVSPropertyOp40
 70
     1
102
RTVSPropertyOp41
 70
     1
102
RTVSPropertyOp42
 70
     1
102
RTVSPropertyOp43
 70
     1
102
RTVSPropertyOp44
 70
     1
102
RTVSPropertyOp45
 70
     1
102
RTVSPropertyOp46
 70
     1
102
RTVSPropertyOp47
 70
     1
102
RTVSPropertyOp48
 70
     1
102
RTVSPropertyOp49
 70
     1
102
RTVSPropertyOp50
 70
     1
102
RTVSPropertyOp51
 70
     0
102
RTVSPropertyOp52
 70
     0
102
RTVSPropertyOp53
 70
     1
102
RTVSPropertyOp54
 70
     1
102
RTVSPropertyOp55
 70
     1
102
RTVSPropertyOp56
 70
     1
102
RTVSPropertyOp57
 70
     1
102
RTVSPropertyOp58
 70
     1
102
RTVSPropertyOp59
 70
     1
102
RTVSPropertyOp60
 70
     1
102
RTVSPropertyOp61
 70
     1
102
RTVSPropertyOp62
 70
     1
  0
XRECORD
  5
205D
102
{ACAD_REACTORS
330
205C
102
}
330
205C
100
AcDbXrecord
280
     1
102
RTVSPost2010Prop28
280
     0
102
RTVSPost2010PropOp28
 70
     1
102
RTVSPost2010Prop29
280
     1
102
RTVSPost2010PropOp29
 70
     1
102
RTVSPost2010Prop30
280
     1
102
RTVSPost2010PropOp30
 70
     1
102
RTVSPost2010Prop31
280
     0
102
RTVSPost2010PropOp31
 70
     1
102
RTVSPost2010Prop32
280
     0
102
RTVSPost2010PropOp32
 70
     1
102
RTVSPost2010Prop33
280
     0
102
RTVSPost2010PropOp33
 70
     1
102
RTVSPost2010Prop34
280
     0
102
RTVSPost2010PropOp34
 70
     1
102
RTVSPost2010Prop35
280
     0
102
RTVSPost2010PropOp35
 70
     1
102
RTVSPost2010Prop36
280
     0
102
RTVSPost2010PropOp36
 70
     1
102
RTVSPost2010Prop37
 90
       50
102
RTVSPost2010PropOp37
 70
     1
102
RTVSPost2010Prop38
140
0.0
102
RTVSPost2010PropOp38
 70
     1
102
RTVSPost2010Prop39
140
1.0
102
RTVSPost2010PropOp39
 70
     1
102
RTVSPost2010Prop40
 90
        0
102
RTVSPost2010PropOp40
 70
     1
102
RTVSPost2010Prop41ColorIndex
 90
       18
102
RTVSPost2010Prop41ColorRGB
 90
        0
102
RTVSPost2010PropOp41
 70
     1
102
RTVSPost2010Prop42
 90
       50
102
RTVSPost2010PropOp42
 70
     1
102
RTVSPost2010Prop43
 90
        3
102
RTVSPost2010PropOp43
 70
     1
102
RTVSPost2010Prop44ColorIndex
 90
        5
102
RTVSPost2010Prop44ColorRGB
 90
      255
102
RTVSPost2010PropOp44
 70
     1
102
RTVSPost2010Prop45
280
     0
102
RTVSPost2010PropOp45
 70
     1
102
RTVSPost2010Prop46
 90
       50
102
RTVSPost2010PropOp46
 70
     1
102
RTVSPost2010Prop47
 90
       50
102
RTVSPost2010PropOp47
 70
     1
102
RTVSPost2010Prop48
 90
       50
102
RTVSPost2010PropOp48
 70
     1
102
RTVSPost2010Prop49
280
     0
102
RTVSPost2010PropOp49
 70
     1
102
RTVSPost2010Prop50
 90
       50
102
RTVSPost2010PropOp50
 70
     1
102
RTVSPost2010Prop51ColorIndex
 90
      256
102
RTVSPost2010Prop51ColorRGB
 90
-16777216
102
RTVSPost2010PropOp51
 70
     0
102
RTVSPost2010Prop52
140
1.0
102
RTVSPost2010PropOp52
 70
     0
102
RTVSPost2010Prop53
 90
        2
102
RTVSPost2010PropOp53
 70
     1
102
RTVSPost2010Prop54
  1
strokes_ogs.tif
102
RTVSPost2010PropOp54
 70
     1
102
RTVSPost2010Prop55
280
     0
102
RTVSPost2010PropOp55
 70
     1
102
RTVSPost2010Prop56
140
1.0
102
RTVSPost2010PropOp56
 70
     1
102
RTVSPost2010Prop57
140
1.0
102
RTVSPost2010PropOp57
 70
     1
102
RTVSPropertyOp0
 70
     0
102
RTVSPropertyOp1
 70
     0
102
RTVSPropertyOp2
 70
     0
102
RTVSPropertyOp3
 70
     0
102
RTVSPropertyOp4
 70
     0
102
RTVSPropertyOp5
 70
     0
102
RTVSPropertyOp6
 70
     0
102
RTVSPropertyOp7
 70
     0
102
RTVSPropertyOp8
 70
     0
102
RTVSPropertyOp9
 70
     0
102
RTVSPropertyOp10
 70
     0
102
RTVSPropertyOp11
 70
     0
102
RTVSPropertyOp12
 70
     0
102
RTVSPropertyOp13
 70
     0
102
RTVSPropertyOp14
 70
     2
102
RTVSPropertyOp15
 70
     0
102
RTVSPropertyOp16
 70
     0
102
RTVSPropertyOp17
 70
     0
102
RTVSPropertyOp18
 70
     0
102
RTVSPropertyOp19
 70
     0
102
RTVSPropertyOp20
 70
     0
102
RTVSPropertyOp21
 70
     0
102
RTVSPropertyOp22
 70
     0
102
RTVSPropertyOp23
 70
     0
102
RTVSPropertyOp24
 70
     0
102
RTVSPropertyOp25
 70
     0
102
RTVSPropertyOp26
 70
     0
102
RTVSPropertyOp27
 70
     0
102
RTVSPropertyOp28
 70
     1
102
RTVSPropertyOp29
 70
     1
102
RTVSPropertyOp30
 70
     1
102
RTVSPropertyOp31
 70
     1
102
RTVSPropertyOp32
 70
     1
102
RTVSPropertyOp33
 70
     1
102
RTVSPropertyOp34
 70
     1
102
RTVSPropertyOp35
 70
     1
102
RTVSPropertyOp36
 70
     1
102
RTVSPropertyOp37
 70
     1
102
RTVSPropertyOp38
 70
     1
102
RTVSPropertyOp39
 70
     1
102
RTVSPropertyOp40
 70
     1
102
RTVSPropertyOp41
 70
     1
102
RTVSPropertyOp42
 70
     1
102
RTVSPropertyOp43
 70
     1
102
RTVSPropertyOp44
 70
     1
102
RTVSPropertyOp45
 70
     1
102
RTVSPropertyOp46
 70
     1
102
RTVSPropertyOp47
 70
     1
102
RTVSPropertyOp48
 70
     1
102
RTVSPropertyOp49
 70
     1
102
RTVSPropertyOp50
 70
     1
102
RTVSPropertyOp51
 70
     0
102
RTVSPropertyOp52
 70
     0
102
RTVSPropertyOp53
 70
     1
102
RTVSPropertyOp54
 70
     1
102
RTVSPropertyOp55
 70
     1
102
RTVSPropertyOp56
 70
     1
102
RTVSPropertyOp57
 70
     1
102
RTVSPropertyOp58
 70
     1
102
RTVSPropertyOp59
 70
     1
102
RTVSPropertyOp60
 70
     1
102
RTVSPropertyOp61
 70
     1
102
RTVSPropertyOp62
 70
     1
  0
XRECORD
  5
2055
102
{ACAD_REACTORS
330
2054
102
}
330
2054
100
AcDbXrecord
280
     1
102
RTVSPost2010Prop28
280
     0
102
RTVSPost2010PropOp28
 70
     1
102
RTVSPost2010Prop29
280
     1
102
RTVSPost2010PropOp29
 70
     1
102
RTVSPost2010Prop30
280
     1
102
RTVSPost2010PropOp30
 70
     1
102
RTVSPost2010Prop31
280
     0
102
RTVSPost2010PropOp31
 70
     1
102
RTVSPost2010Prop32
280
     0
102
RTVSPost2010PropOp32
 70
     1
102
RTVSPost2010Prop33
280
     0
102
RTVSPost2010PropOp33
 70
     1
102
RTVSPost2010Prop34
280
     0
102
RTVSPost2010PropOp34
 70
     1
102
RTVSPost2010Prop35
280
     0
102
RTVSPost2010PropOp35
 70
     1
102
RTVSPost2010Prop36
280
     0
102
RTVSPost2010PropOp36
 70
     1
102
RTVSPost2010Prop37
 90
       50
102
RTVSPost2010PropOp37
 70
     1
102
RTVSPost2010Prop38
140
0.0
102
RTVSPost2010PropOp38
 70
     1
102
RTVSPost2010Prop39
140
1.0
102
RTVSPost2010PropOp39
 70
     1
102
RTVSPost2010Prop40
 90
        0
102
RTVSPost2010PropOp40
 70
     1
102
RTVSPost2010Prop41ColorIndex
 90
       18
102
RTVSPost2010Prop41ColorRGB
 90
        0
102
RTVSPost2010PropOp41
 70
     1
102
RTVSPost2010Prop42
 90
       50
102
RTVSPost2010PropOp42
 70
     1
102
RTVSPost2010Prop43
 90
        3
102
RTVSPost2010PropOp43
 70
     1
102
RTVSPost2010Prop44ColorIndex
 90
        5
102
RTVSPost2010Prop44ColorRGB
 90
      255
102
RTVSPost2010PropOp44
 70
     1
102
RTVSPost2010Prop45
280
     0
102
RTVSPost2010PropOp45
 70
     1
102
RTVSPost2010Prop46
 90
       50
102
RTVSPost2010PropOp46
 70
     1
102
RTVSPost2010Prop47
 90
       50
102
RTVSPost2010PropOp47
 70
     1
102
RTVSPost2010Prop48
 90
       50
102
RTVSPost2010PropOp48
 70
     1
102
RTVSPost2010Prop49
280
     0
102
RTVSPost2010PropOp49
 70
     1
102
RTVSPost2010Prop50
 90
       50
102
RTVSPost2010PropOp50
 70
     1
102
RTVSPost2010Prop51ColorIndex
 90
      256
102
RTVSPost2010Prop51ColorRGB
 90
-16777216
102
RTVSPost2010PropOp51
 70
     0
102
RTVSPost2010Prop52
140
1.0
102
RTVSPost2010PropOp52
 70
     0
102
RTVSPost2010Prop53
 90
        2
102
RTVSPost2010PropOp53
 70
     1
102
RTVSPost2010Prop54
  1
strokes_ogs.tif
102
RTVSPost2010PropOp54
 70
     1
102
RTVSPost2010Prop55
280
     0
102
RTVSPost2010PropOp55
 70
     1
102
RTVSPost2010Prop56
140
1.0
102
RTVSPost2010PropOp56
 70
     1
102
RTVSPost2010Prop57
140
1.0
102
RTVSPost2010PropOp57
 70
     1
102
RTVSPropertyOp0
 70
     1
102
RTVSPropertyOp1
 70
     1
102
RTVSPropertyOp2
 70
     1
102
RTVSPropertyOp3
 70
     1
102
RTVSPropertyOp4
 70
     1
102
RTVSPropertyOp5
 70
     1
102
RTVSPropertyOp6
 70
     1
102
RTVSPropertyOp7
 70
     1
102
RTVSPropertyOp8
 70
     1
102
RTVSPropertyOp9
 70
     1
102
RTVSPropertyOp10
 70
     1
102
RTVSPropertyOp11
 70
     1
102
RTVSPropertyOp12
 70
     1
102
RTVSPropertyOp13
 70
     1
102
RTVSPropertyOp14
 70
     1
102
RTVSPropertyOp15
 70
     1
102
RTVSPropertyOp16
 70
     1
102
RTVSPropertyOp17
 70
     1
102
RTVSPropertyOp18
 70
     1
102
RTVSPropertyOp19
 70
     1
102
RTVSPropertyOp20
 70
     1
102
RTVSPropertyOp21
 70
     1
102
RTVSPropertyOp22
 70
     1
102
RTVSPropertyOp23
 70
     1
102
RTVSPropertyOp24
 70
     1
102
RTVSPropertyOp25
 70
     1
102
RTVSPropertyOp26
 70
     1
102
RTVSPropertyOp27
 70
     1
102
RTVSPropertyOp28
 70
     1
102
RTVSPropertyOp29
 70
     1
102
RTVSPropertyOp30
 70
     1
102
RTVSPropertyOp31
 70
     1
102
RTVSPropertyOp32
 70
     1
102
RTVSPropertyOp33
 70
     1
102
RTVSPropertyOp34
 70
     1
102
RTVSPropertyOp35
 70
     1
102
RTVSPropertyOp36
 70
     1
102
RTVSPropertyOp37
 70
     1
102
RTVSPropertyOp38
 70
     1
102
RTVSPropertyOp39
 70
     1
102
RTVSPropertyOp40
 70
     1
102
RTVSPropertyOp41
 70
     1
102
RTVSPropertyOp42
 70
     1
102
RTVSPropertyOp43
 70
     1
102
RTVSPropertyOp44
 70
     1
102
RTVSPropertyOp45
 70
     1
102
RTVSPropertyOp46
 70
     1
102
RTVSPropertyOp47
 70
     1
102
RTVSPropertyOp48
 70
     1
102
RTVSPropertyOp49
 70
     1
102
RTVSPropertyOp50
 70
     1
102
RTVSPropertyOp51
 70
     0
102
RTVSPropertyOp52
 70
     0
102
RTVSPropertyOp53
 70
     1
102
RTVSPropertyOp54
 70
     1
102
RTVSPropertyOp55
 70
     1
102
RTVSPropertyOp56
 70
     1
102
RTVSPropertyOp57
 70
     1
102
RTVSPropertyOp58
 70
     1
102
RTVSPropertyOp59
 70
     1
102
RTVSPropertyOp60
 70
     1
102
RTVSPropertyOp61
 70
     1
102
RTVSPropertyOp62
 70
     1
  0
XRECORD
  5
205F
102
{ACAD_REACTORS
330
205E
102
}
330
205E
100
AcDbXrecord
280
     1
102
RTVSPost2010Prop28
280
     0
102
RTVSPost2010PropOp28
 70
     1
102
RTVSPost2010Prop29
280
     1
102
RTVSPost2010PropOp29
 70
     1
102
RTVSPost2010Prop30
280
     1
102
RTVSPost2010PropOp30
 70
     1
102
RTVSPost2010Prop31
280
     0
102
RTVSPost2010PropOp31
 70
     1
102
RTVSPost2010Prop32
280
     0
102
RTVSPost2010PropOp32
 70
     1
102
RTVSPost2010Prop33
280
     0
102
RTVSPost2010PropOp33
 70
     1
102
RTVSPost2010Prop34
280
     0
102
RTVSPost2010PropOp34
 70
     1
102
RTVSPost2010Prop35
280
     0
102
RTVSPost2010PropOp35
 70
     1
102
RTVSPost2010Prop36
280
     0
102
RTVSPost2010PropOp36
 70
     1
102
RTVSPost2010Prop37
 90
       50
102
RTVSPost2010PropOp37
 70
     1
102
RTVSPost2010Prop38
140
0.0
102
RTVSPost2010PropOp38
 70
     1
102
RTVSPost2010Prop39
140
1.0
102
RTVSPost2010PropOp39
 70
     1
102
RTVSPost2010Prop40
 90
        0
102
RTVSPost2010PropOp40
 70
     1
102
RTVSPost2010Prop41ColorIndex
 90
       18
102
RTVSPost2010Prop41ColorRGB
 90
        0
102
RTVSPost2010PropOp41
 70
     1
102
RTVSPost2010Prop42
 90
       50
102
RTVSPost2010PropOp42
 70
     1
102
RTVSPost2010Prop43
 90
        3
102
RTVSPost2010PropOp43
 70
     1
102
RTVSPost2010Prop44ColorIndex
 90
        5
102
RTVSPost2010Prop44ColorRGB
 90
      255
102
RTVSPost2010PropOp44
 70
     1
102
RTVSPost2010Prop45
280
     0
102
RTVSPost2010PropOp45
 70
     1
102
RTVSPost2010Prop46
 90
       50
102
RTVSPost2010PropOp46
 70
     1
102
RTVSPost2010Prop47
 90
       50
102
RTVSPost2010PropOp47
 70
     1
102
RTVSPost2010Prop48
 90
       50
102
RTVSPost2010PropOp48
 70
     1
102
RTVSPost2010Prop49
280
     0
102
RTVSPost2010PropOp49
 70
     1
102
RTVSPost2010Prop50
 90
       50
102
RTVSPost2010PropOp50
 70
     1
102
RTVSPost2010Prop51ColorIndex
 90
      256
102
RTVSPost2010Prop51ColorRGB
 90
-16777216
102
RTVSPost2010PropOp51
 70
     0
102
RTVSPost2010Prop52
140
1.0
102
RTVSPost2010PropOp52
 70
     0
102
RTVSPost2010Prop53
 90
        2
102
RTVSPost2010PropOp53
 70
     1
102
RTVSPost2010Prop54
  1
strokes_ogs.tif
102
RTVSPost2010PropOp54
 70
     1
102
RTVSPost2010Prop55
280
     0
102
RTVSPost2010PropOp55
 70
     1
102
RTVSPost2010Prop56
140
1.0
102
RTVSPost2010PropOp56
 70
     1
102
RTVSPost2010Prop57
140
1.0
102
RTVSPost2010PropOp57
 70
     1
102
RTVSPropertyOp0
 70
     0
102
RTVSPropertyOp1
 70
     0
102
RTVSPropertyOp2
 70
     0
102
RTVSPropertyOp3
 70
     0
102
RTVSPropertyOp4
 70
     0
102
RTVSPropertyOp5
 70
     0
102
RTVSPropertyOp6
 70
     0
102
RTVSPropertyOp7
 70
     0
102
RTVSPropertyOp8
 70
     0
102
RTVSPropertyOp9
 70
     0
102
RTVSPropertyOp10
 70
     0
102
RTVSPropertyOp11
 70
     0
102
RTVSPropertyOp12
 70
     0
102
RTVSPropertyOp13
 70
     0
102
RTVSPropertyOp14
 70
     2
102
RTVSPropertyOp15
 70
     0
102
RTVSPropertyOp16
 70
     0
102
RTVSPropertyOp17
 70
     0
102
RTVSPropertyOp18
 70
     0
102
RTVSPropertyOp19
 70
     0
102
RTVSPropertyOp20
 70
     0
102
RTVSPropertyOp21
 70
     0
102
RTVSPropertyOp22
 70
     0
102
RTVSPropertyOp23
 70
     0
102
RTVSPropertyOp24
 70
     0
102
RTVSPropertyOp25
 70
     0
102
RTVSPropertyOp26
 70
     0
102
RTVSPropertyOp27
 70
     0
102
RTVSPropertyOp28
 70
     1
102
RTVSPropertyOp29
 70
     1
102
RTVSPropertyOp30
 70
     1
102
RTVSPropertyOp31
 70
     1
102
RTVSPropertyOp32
 70
     1
102
RTVSPropertyOp33
 70
     1
102
RTVSPropertyOp34
 70
     1
102
RTVSPropertyOp35
 70
     1
102
RTVSPropertyOp36
 70
     1
102
RTVSPropertyOp37
 70
     1
102
RTVSPropertyOp38
 70
     1
102
RTVSPropertyOp39
 70
     1
102
RTVSPropertyOp40
 70
     1
102
RTVSPropertyOp41
 70
     1
102
RTVSPropertyOp42
 70
     1
102
RTVSPropertyOp43
 70
     1
102
RTVSPropertyOp44
 70
     1
102
RTVSPropertyOp45
 70
     1
102
RTVSPropertyOp46
 70
     1
102
RTVSPropertyOp47
 70
     1
102
RTVSPropertyOp48
 70
     1
102
RTVSPropertyOp49
 70
     1
102
RTVSPropertyOp50
 70
     1
102
RTVSPropertyOp51
 70
     0
102
RTVSPropertyOp52
 70
     0
102
RTVSPropertyOp53
 70
     1
102
RTVSPropertyOp54
 70
     1
102
RTVSPropertyOp55
 70
     1
102
RTVSPropertyOp56
 70
     1
102
RTVSPropertyOp57
 70
     1
102
RTVSPropertyOp58
 70
     1
102
RTVSPropertyOp59
 70
     1
102
RTVSPropertyOp60
 70
     1
102
RTVSPropertyOp61
 70
     1
102
RTVSPropertyOp62
 70
     1
  0
XRECORD
  5
204D
102
{ACAD_REACTORS
330
204C
102
}
330
204C
100
AcDbXrecord
280
     1
102
RTVSPost2010Prop28
280
     0
102
RTVSPost2010PropOp28
 70
     1
102
RTVSPost2010Prop29
280
     1
102
RTVSPost2010PropOp29
 70
     1
102
RTVSPost2010Prop30
280
     1
102
RTVSPost2010PropOp30
 70
     1
102
RTVSPost2010Prop31
280
     0
102
RTVSPost2010PropOp31
 70
     1
102
RTVSPost2010Prop32
280
     0
102
RTVSPost2010PropOp32
 70
     1
102
RTVSPost2010Prop33
280
     0
102
RTVSPost2010PropOp33
 70
     1
102
RTVSPost2010Prop34
280
     0
102
RTVSPost2010PropOp34
 70
     1
102
RTVSPost2010Prop35
280
     0
102
RTVSPost2010PropOp35
 70
     1
102
RTVSPost2010Prop36
280
     0
102
RTVSPost2010PropOp36
 70
     1
102
RTVSPost2010Prop37
 90
       50
102
RTVSPost2010PropOp37
 70
     1
102
RTVSPost2010Prop38
140
0.0
102
RTVSPost2010PropOp38
 70
     1
102
RTVSPost2010Prop39
140
1.0
102
RTVSPost2010PropOp39
 70
     1
102
RTVSPost2010Prop40
 90
        0
102
RTVSPost2010PropOp40
 70
     1
102
RTVSPost2010Prop41ColorIndex
 90
       18
102
RTVSPost2010Prop41ColorRGB
 90
        0
102
RTVSPost2010PropOp41
 70
     1
102
RTVSPost2010Prop42
 90
       50
102
RTVSPost2010PropOp42
 70
     1
102
RTVSPost2010Prop43
 90
        3
102
RTVSPost2010PropOp43
 70
     1
102
RTVSPost2010Prop44ColorIndex
 90
        5
102
RTVSPost2010Prop44ColorRGB
 90
      255
102
RTVSPost2010PropOp44
 70
     1
102
RTVSPost2010Prop45
280
     0
102
RTVSPost2010PropOp45
 70
     1
102
RTVSPost2010Prop46
 90
       50
102
RTVSPost2010PropOp46
 70
     1
102
RTVSPost2010Prop47
 90
       50
102
RTVSPost2010PropOp47
 70
     1
102
RTVSPost2010Prop48
 90
       50
102
RTVSPost2010PropOp48
 70
     1
102
RTVSPost2010Prop49
280
     0
102
RTVSPost2010PropOp49
 70
     1
102
RTVSPost2010Prop50
 90
       50
102
RTVSPost2010PropOp50
 70
     1
102
RTVSPost2010Prop51ColorIndex
 90
      256
102
RTVSPost2010Prop51ColorRGB
 90
-16777216
102
RTVSPost2010PropOp51
 70
     0
102
RTVSPost2010Prop52
140
1.0
102
RTVSPost2010PropOp52
 70
     0
102
RTVSPost2010Prop53
 90
        2
102
RTVSPost2010PropOp53
 70
     1
102
RTVSPost2010Prop54
  1
strokes_ogs.tif
102
RTVSPost2010PropOp54
 70
     1
102
RTVSPost2010Prop55
280
     0
102
RTVSPost2010PropOp55
 70
     1
102
RTVSPost2010Prop56
140
1.0
102
RTVSPost2010PropOp56
 70
     1
102
RTVSPost2010Prop57
140
1.0
102
RTVSPost2010PropOp57
 70
     1
102
RTVSPropertyOp0
 70
     1
102
RTVSPropertyOp1
 70
     1
102
RTVSPropertyOp2
 70
     1
102
RTVSPropertyOp3
 70
     1
102
RTVSPropertyOp4
 70
     1
102
RTVSPropertyOp5
 70
     1
102
RTVSPropertyOp6
 70
     1
102
RTVSPropertyOp7
 70
     1
102
RTVSPropertyOp8
 70
     1
102
RTVSPropertyOp9
 70
     1
102
RTVSPropertyOp10
 70
     1
102
RTVSPropertyOp11
 70
     1
102
RTVSPropertyOp12
 70
     1
102
RTVSPropertyOp13
 70
     1
102
RTVSPropertyOp14
 70
     1
102
RTVSPropertyOp15
 70
     1
102
RTVSPropertyOp16
 70
     1
102
RTVSPropertyOp17
 70
     1
102
RTVSPropertyOp18
 70
     1
102
RTVSPropertyOp19
 70
     1
102
RTVSPropertyOp20
 70
     1
102
RTVSPropertyOp21
 70
     1
102
RTVSPropertyOp22
 70
     1
102
RTVSPropertyOp23
 70
     1
102
RTVSPropertyOp24
 70
     1
102
RTVSPropertyOp25
 70
     1
102
RTVSPropertyOp26
 70
     1
102
RTVSPropertyOp27
 70
     1
102
RTVSPropertyOp28
 70
     1
102
RTVSPropertyOp29
 70
     1
102
RTVSPropertyOp30
 70
     1
102
RTVSPropertyOp31
 70
     1
102
RTVSPropertyOp32
 70
     1
102
RTVSPropertyOp33
 70
     1
102
RTVSPropertyOp34
 70
     1
102
RTVSPropertyOp35
 70
     1
102
RTVSPropertyOp36
 70
     1
102
RTVSPropertyOp37
 70
     1
102
RTVSPropertyOp38
 70
     1
102
RTVSPropertyOp39
 70
     1
102
RTVSPropertyOp40
 70
     1
102
RTVSPropertyOp41
 70
     1
102
RTVSPropertyOp42
 70
     1
102
RTVSPropertyOp43
 70
     1
102
RTVSPropertyOp44
 70
     1
102
RTVSPropertyOp45
 70
     1
102
RTVSPropertyOp46
 70
     1
102
RTVSPropertyOp47
 70
     1
102
RTVSPropertyOp48
 70
     1
102
RTVSPropertyOp49
 70
     1
102
RTVSPropertyOp50
 70
     1
102
RTVSPropertyOp51
 70
     0
102
RTVSPropertyOp52
 70
     0
102
RTVSPropertyOp53
 70
     1
102
RTVSPropertyOp54
 70
     1
102
RTVSPropertyOp55
 70
     1
102
RTVSPropertyOp56
 70
     1
102
RTVSPropertyOp57
 70
     1
102
RTVSPropertyOp58
 70
     1
102
RTVSPropertyOp59
 70
     1
102
RTVSPropertyOp60
 70
     1
102
RTVSPropertyOp61
 70
     1
102
RTVSPropertyOp62
 70
     1
  0
XRECORD
  5
206B
102
{ACAD_REACTORS
330
206A
102
}
330
206A
100
AcDbXrecord
280
     1
102
RTVSPost2010Prop28
280
     0
102
RTVSPost2010PropOp28
 70
     1
102
RTVSPost2010Prop29
280
     1
102
RTVSPost2010PropOp29
 70
     1
102
RTVSPost2010Prop30
280
     1
102
RTVSPost2010PropOp30
 70
     1
102
RTVSPost2010Prop31
280
     0
102
RTVSPost2010PropOp31
 70
     1
102
RTVSPost2010Prop32
280
     0
102
RTVSPost2010PropOp32
 70
     1
102
RTVSPost2010Prop33
280
     0
102
RTVSPost2010PropOp33
 70
     1
102
RTVSPost2010Prop34
280
     0
102
RTVSPost2010PropOp34
 70
     1
102
RTVSPost2010Prop35
280
     0
102
RTVSPost2010PropOp35
 70
     1
102
RTVSPost2010Prop36
280
     0
102
RTVSPost2010PropOp36
 70
     1
102
RTVSPost2010Prop37
 90
       50
102
RTVSPost2010PropOp37
 70
     1
102
RTVSPost2010Prop38
140
0.0
102
RTVSPost2010PropOp38
 70
     1
102
RTVSPost2010Prop39
140
1.0
102
RTVSPost2010PropOp39
 70
     1
102
RTVSPost2010Prop40
 90
        0
102
RTVSPost2010PropOp40
 70
     1
102
RTVSPost2010Prop41ColorIndex
 90
       18
102
RTVSPost2010Prop41ColorRGB
 90
        0
102
RTVSPost2010PropOp41
 70
     1
102
RTVSPost2010Prop42
 90
       50
102
RTVSPost2010PropOp42
 70
     1
102
RTVSPost2010Prop43
 90
        3
102
RTVSPost2010PropOp43
 70
     1
102
RTVSPost2010Prop44ColorIndex
 90
        5
102
RTVSPost2010Prop44ColorRGB
 90
      255
102
RTVSPost2010PropOp44
 70
     1
102
RTVSPost2010Prop45
280
     0
102
RTVSPost2010PropOp45
 70
     1
102
RTVSPost2010Prop46
 90
       50
102
RTVSPost2010PropOp46
 70
     1
102
RTVSPost2010Prop47
 90
       50
102
RTVSPost2010PropOp47
 70
     1
102
RTVSPost2010Prop48
 90
       50
102
RTVSPost2010PropOp48
 70
     1
102
RTVSPost2010Prop49
280
     0
102
RTVSPost2010PropOp49
 70
     1
102
RTVSPost2010Prop50
 90
       50
102
RTVSPost2010PropOp50
 70
     1
102
RTVSPost2010Prop51ColorIndex
 90
      256
102
RTVSPost2010Prop51ColorRGB
 90
-16777216
102
RTVSPost2010PropOp51
 70
     0
102
RTVSPost2010Prop52
140
1.0
102
RTVSPost2010PropOp52
 70
     0
102
RTVSPost2010Prop53
 90
        2
102
RTVSPost2010PropOp53
 70
     1
102
RTVSPost2010Prop54
  1
strokes_ogs.tif
102
RTVSPost2010PropOp54
 70
     1
102
RTVSPost2010Prop55
280
     0
102
RTVSPost2010PropOp55
 70
     1
102
RTVSPost2010Prop56
140
1.0
102
RTVSPost2010PropOp56
 70
     1
102
RTVSPost2010Prop57
140
1.0
102
RTVSPost2010PropOp57
 70
     1
102
RTVSPropertyOp0
 70
     1
102
RTVSPropertyOp1
 70
     1
102
RTVSPropertyOp2
 70
     1
102
RTVSPropertyOp3
 70
     1
102
RTVSPropertyOp4
 70
     1
102
RTVSPropertyOp5
 70
     1
102
RTVSPropertyOp6
 70
     1
102
RTVSPropertyOp7
 70
     1
102
RTVSPropertyOp8
 70
     1
102
RTVSPropertyOp9
 70
     1
102
RTVSPropertyOp10
 70
     1
102
RTVSPropertyOp11
 70
     1
102
RTVSPropertyOp12
 70
     1
102
RTVSPropertyOp13
 70
     1
102
RTVSPropertyOp14
 70
     1
102
RTVSPropertyOp15
 70
     1
102
RTVSPropertyOp16
 70
     1
102
RTVSPropertyOp17
 70
     1
102
RTVSPropertyOp18
 70
     1
102
RTVSPropertyOp19
 70
     1
102
RTVSPropertyOp20
 70
     1
102
RTVSPropertyOp21
 70
     1
102
RTVSPropertyOp22
 70
     1
102
RTVSPropertyOp23
 70
     1
102
RTVSPropertyOp24
 70
     1
102
RTVSPropertyOp25
 70
     1
102
RTVSPropertyOp26
 70
     1
102
RTVSPropertyOp27
 70
     1
102
RTVSPropertyOp28
 70
     1
102
RTVSPropertyOp29
 70
     1
102
RTVSPropertyOp30
 70
     1
102
RTVSPropertyOp31
 70
     1
102
RTVSPropertyOp32
 70
     1
102
RTVSPropertyOp33
 70
     1
102
RTVSPropertyOp34
 70
     1
102
RTVSPropertyOp35
 70
     1
102
RTVSPropertyOp36
 70
     1
102
RTVSPropertyOp37
 70
     1
102
RTVSPropertyOp38
 70
     1
102
RTVSPropertyOp39
 70
     1
102
RTVSPropertyOp40
 70
     1
102
RTVSPropertyOp41
 70
     1
102
RTVSPropertyOp42
 70
     1
102
RTVSPropertyOp43
 70
     1
102
RTVSPropertyOp44
 70
     1
102
RTVSPropertyOp45
 70
     1
102
RTVSPropertyOp46
 70
     1
102
RTVSPropertyOp47
 70
     1
102
RTVSPropertyOp48
 70
     1
102
RTVSPropertyOp49
 70
     1
102
RTVSPropertyOp50
 70
     1
102
RTVSPropertyOp51
 70
     0
102
RTVSPropertyOp52
 70
     0
102
RTVSPropertyOp53
 70
     1
102
RTVSPropertyOp54
 70
     1
102
RTVSPropertyOp55
 70
     1
102
RTVSPropertyOp56
 70
     1
102
RTVSPropertyOp57
 70
     1
102
RTVSPropertyOp58
 70
     1
102
RTVSPropertyOp59
 70
     1
102
RTVSPropertyOp60
 70
     1
102
RTVSPropertyOp61
 70
     1
102
RTVSPropertyOp62
 70
     1
  0
XRECORD
  5
2069
102
{ACAD_REACTORS
330
2068
102
}
330
2068
100
AcDbXrecord
280
     1
102
RTVSPost2010Prop28
280
     0
102
RTVSPost2010PropOp28
 70
     1
102
RTVSPost2010Prop29
280
     1
102
RTVSPost2010PropOp29
 70
     1
102
RTVSPost2010Prop30
280
     1
102
RTVSPost2010PropOp30
 70
     1
102
RTVSPost2010Prop31
280
     0
102
RTVSPost2010PropOp31
 70
     1
102
RTVSPost2010Prop32
280
     0
102
RTVSPost2010PropOp32
 70
     1
102
RTVSPost2010Prop33
280
     0
102
RTVSPost2010PropOp33
 70
     1
102
RTVSPost2010Prop34
280
     0
102
RTVSPost2010PropOp34
 70
     1
102
RTVSPost2010Prop35
280
     0
102
RTVSPost2010PropOp35
 70
     1
102
RTVSPost2010Prop36
280
     0
102
RTVSPost2010PropOp36
 70
     1
102
RTVSPost2010Prop37
 90
       50
102
RTVSPost2010PropOp37
 70
     1
102
RTVSPost2010Prop38
140
0.0
102
RTVSPost2010PropOp38
 70
     1
102
RTVSPost2010Prop39
140
1.0
102
RTVSPost2010PropOp39
 70
     1
102
RTVSPost2010Prop40
 90
        0
102
RTVSPost2010PropOp40
 70
     1
102
RTVSPost2010Prop41ColorIndex
 90
       18
102
RTVSPost2010Prop41ColorRGB
 90
        0
102
RTVSPost2010PropOp41
 70
     1
102
RTVSPost2010Prop42
 90
       50
102
RTVSPost2010PropOp42
 70
     1
102
RTVSPost2010Prop43
 90
        3
102
RTVSPost2010PropOp43
 70
     1
102
RTVSPost2010Prop44ColorIndex
 90
        5
102
RTVSPost2010Prop44ColorRGB
 90
      255
102
RTVSPost2010PropOp44
 70
     1
102
RTVSPost2010Prop45
280
     0
102
RTVSPost2010PropOp45
 70
     1
102
RTVSPost2010Prop46
 90
       50
102
RTVSPost2010PropOp46
 70
     1
102
RTVSPost2010Prop47
 90
       50
102
RTVSPost2010PropOp47
 70
     1
102
RTVSPost2010Prop48
 90
       50
102
RTVSPost2010PropOp48
 70
     1
102
RTVSPost2010Prop49
280
     0
102
RTVSPost2010PropOp49
 70
     1
102
RTVSPost2010Prop50
 90
       50
102
RTVSPost2010PropOp50
 70
     1
102
RTVSPost2010Prop51ColorIndex
 90
      256
102
RTVSPost2010Prop51ColorRGB
 90
-16777216
102
RTVSPost2010PropOp51
 70
     0
102
RTVSPost2010Prop52
140
1.0
102
RTVSPost2010PropOp52
 70
     0
102
RTVSPost2010Prop53
 90
        2
102
RTVSPost2010PropOp53
 70
     1
102
RTVSPost2010Prop54
  1
strokes_ogs.tif
102
RTVSPost2010PropOp54
 70
     1
102
RTVSPost2010Prop55
280
     0
102
RTVSPost2010PropOp55
 70
     1
102
RTVSPost2010Prop56
140
1.0
102
RTVSPost2010PropOp56
 70
     1
102
RTVSPost2010Prop57
140
1.0
102
RTVSPost2010PropOp57
 70
     1
102
RTVSPropertyOp0
 70
     1
102
RTVSPropertyOp1
 70
     1
102
RTVSPropertyOp2
 70
     1
102
RTVSPropertyOp3
 70
     1
102
RTVSPropertyOp4
 70
     1
102
RTVSPropertyOp5
 70
     1
102
RTVSPropertyOp6
 70
     1
102
RTVSPropertyOp7
 70
     1
102
RTVSPropertyOp8
 70
     1
102
RTVSPropertyOp9
 70
     1
102
RTVSPropertyOp10
 70
     1
102
RTVSPropertyOp11
 70
     1
102
RTVSPropertyOp12
 70
     1
102
RTVSPropertyOp13
 70
     1
102
RTVSPropertyOp14
 70
     1
102
RTVSPropertyOp15
 70
     1
102
RTVSPropertyOp16
 70
     1
102
RTVSPropertyOp17
 70
     1
102
RTVSPropertyOp18
 70
     1
102
RTVSPropertyOp19
 70
     1
102
RTVSPropertyOp20
 70
     1
102
RTVSPropertyOp21
 70
     1
102
RTVSPropertyOp22
 70
     1
102
RTVSPropertyOp23
 70
     1
102
RTVSPropertyOp24
 70
     1
102
RTVSPropertyOp25
 70
     1
102
RTVSPropertyOp26
 70
     1
102
RTVSPropertyOp27
 70
     1
102
RTVSPropertyOp28
 70
     1
102
RTVSPropertyOp29
 70
     1
102
RTVSPropertyOp30
 70
     1
102
RTVSPropertyOp31
 70
     1
102
RTVSPropertyOp32
 70
     1
102
RTVSPropertyOp33
 70
     1
102
RTVSPropertyOp34
 70
     1
102
RTVSPropertyOp35
 70
     1
102
RTVSPropertyOp36
 70
     1
102
RTVSPropertyOp37
 70
     1
102
RTVSPropertyOp38
 70
     1
102
RTVSPropertyOp39
 70
     1
102
RTVSPropertyOp40
 70
     1
102
RTVSPropertyOp41
 70
     1
102
RTVSPropertyOp42
 70
     1
102
RTVSPropertyOp43
 70
     1
102
RTVSPropertyOp44
 70
     1
102
RTVSPropertyOp45
 70
     1
102
RTVSPropertyOp46
 70
     1
102
RTVSPropertyOp47
 70
     1
102
RTVSPropertyOp48
 70
     1
102
RTVSPropertyOp49
 70
     1
102
RTVSPropertyOp50
 70
     1
102
RTVSPropertyOp51
 70
     0
102
RTVSPropertyOp52
 70
     0
102
RTVSPropertyOp53
 70
     1
102
RTVSPropertyOp54
 70
     1
102
RTVSPropertyOp55
 70
     1
102
RTVSPropertyOp56
 70
     1
102
RTVSPropertyOp57
 70
     1
102
RTVSPropertyOp58
 70
     1
102
RTVSPropertyOp59
 70
     1
102
RTVSPropertyOp60
 70
     1
102
RTVSPropertyOp61
 70
     1
102
RTVSPropertyOp62
 70
     1
  0
XRECORD
  5
2063
102
{ACAD_REACTORS
330
2062
102
}
330
2062
100
AcDbXrecord
280
     1
102
RTVSPost2010Prop28
280
     0
102
RTVSPost2010PropOp28
 70
     1
102
RTVSPost2010Prop29
280
     1
102
RTVSPost2010PropOp29
 70
     1
102
RTVSPost2010Prop30
280
     1
102
RTVSPost2010PropOp30
 70
     1
102
RTVSPost2010Prop31
280
     0
102
RTVSPost2010PropOp31
 70
     1
102
RTVSPost2010Prop32
280
     0
102
RTVSPost2010PropOp32
 70
     1
102
RTVSPost2010Prop33
280
     0
102
RTVSPost2010PropOp33
 70
     1
102
RTVSPost2010Prop34
280
     0
102
RTVSPost2010PropOp34
 70
     1
102
RTVSPost2010Prop35
280
     0
102
RTVSPost2010PropOp35
 70
     1
102
RTVSPost2010Prop36
280
     0
102
RTVSPost2010PropOp36
 70
     1
102
RTVSPost2010Prop37
 90
       50
102
RTVSPost2010PropOp37
 70
     1
102
RTVSPost2010Prop38
140
0.0
102
RTVSPost2010PropOp38
 70
     1
102
RTVSPost2010Prop39
140
1.0
102
RTVSPost2010PropOp39
 70
     1
102
RTVSPost2010Prop40
 90
        0
102
RTVSPost2010PropOp40
 70
     1
102
RTVSPost2010Prop41ColorIndex
 90
       18
102
RTVSPost2010Prop41ColorRGB
 90
        0
102
RTVSPost2010PropOp41
 70
     1
102
RTVSPost2010Prop42
 90
       50
102
RTVSPost2010PropOp42
 70
     1
102
RTVSPost2010Prop43
 90
        3
102
RTVSPost2010PropOp43
 70
     1
102
RTVSPost2010Prop44ColorIndex
 90
        5
102
RTVSPost2010Prop44ColorRGB
 90
      255
102
RTVSPost2010PropOp44
 70
     1
102
RTVSPost2010Prop45
280
     0
102
RTVSPost2010PropOp45
 70
     1
102
RTVSPost2010Prop46
 90
       50
102
RTVSPost2010PropOp46
 70
     1
102
RTVSPost2010Prop47
 90
       50
102
RTVSPost2010PropOp47
 70
     1
102
RTVSPost2010Prop48
 90
       50
102
RTVSPost2010PropOp48
 70
     1
102
RTVSPost2010Prop49
280
     0
102
RTVSPost2010PropOp49
 70
     1
102
RTVSPost2010Prop50
 90
       50
102
RTVSPost2010PropOp50
 70
     1
102
RTVSPost2010Prop51ColorIndex
 90
      256
102
RTVSPost2010Prop51ColorRGB
 90
-16777216
102
RTVSPost2010PropOp51
 70
     0
102
RTVSPost2010Prop52
140
1.0
102
RTVSPost2010PropOp52
 70
     0
102
RTVSPost2010Prop53
 90
        2
102
RTVSPost2010PropOp53
 70
     1
102
RTVSPost2010Prop54
  1
strokes_ogs.tif
102
RTVSPost2010PropOp54
 70
     1
102
RTVSPost2010Prop55
280
     0
102
RTVSPost2010PropOp55
 70
     1
102
RTVSPost2010Prop56
140
1.0
102
RTVSPost2010PropOp56
 70
     1
102
RTVSPost2010Prop57
140
1.0
102
RTVSPost2010PropOp57
 70
     1
102
RTVSPropertyOp0
 70
     1
102
RTVSPropertyOp1
 70
     1
102
RTVSPropertyOp2
 70
     1
102
RTVSPropertyOp3
 70
     1
102
RTVSPropertyOp4
 70
     1
102
RTVSPropertyOp5
 70
     1
102
RTVSPropertyOp6
 70
     1
102
RTVSPropertyOp7
 70
     1
102
RTVSPropertyOp8
 70
     1
102
RTVSPropertyOp9
 70
     1
102
RTVSPropertyOp10
 70
     1
102
RTVSPropertyOp11
 70
     1
102
RTVSPropertyOp12
 70
     1
102
RTVSPropertyOp13
 70
     1
102
RTVSPropertyOp14
 70
     1
102
RTVSPropertyOp15
 70
     1
102
RTVSPropertyOp16
 70
     1
102
RTVSPropertyOp17
 70
     1
102
RTVSPropertyOp18
 70
     1
102
RTVSPropertyOp19
 70
     1
102
RTVSPropertyOp20
 70
     1
102
RTVSPropertyOp21
 70
     1
102
RTVSPropertyOp22
 70
     1
102
RTVSPropertyOp23
 70
     1
102
RTVSPropertyOp24
 70
     1
102
RTVSPropertyOp25
 70
     1
102
RTVSPropertyOp26
 70
     1
102
RTVSPropertyOp27
 70
     1
102
RTVSPropertyOp28
 70
     1
102
RTVSPropertyOp29
 70
     1
102
RTVSPropertyOp30
 70
     1
102
RTVSPropertyOp31
 70
     1
102
RTVSPropertyOp32
 70
     1
102
RTVSPropertyOp33
 70
     1
102
RTVSPropertyOp34
 70
     1
102
RTVSPropertyOp35
 70
     1
102
RTVSPropertyOp36
 70
     1
102
RTVSPropertyOp37
 70
     1
102
RTVSPropertyOp38
 70
     1
102
RTVSPropertyOp39
 70
     1
102
RTVSPropertyOp40
 70
     1
102
RTVSPropertyOp41
 70
     1
102
RTVSPropertyOp42
 70
     1
102
RTVSPropertyOp43
 70
     1
102
RTVSPropertyOp44
 70
     1
102
RTVSPropertyOp45
 70
     1
102
RTVSPropertyOp46
 70
     1
102
RTVSPropertyOp47
 70
     1
102
RTVSPropertyOp48
 70
     1
102
RTVSPropertyOp49
 70
     1
102
RTVSPropertyOp50
 70
     1
102
RTVSPropertyOp51
 70
     0
102
RTVSPropertyOp52
 70
     0
102
RTVSPropertyOp53
 70
     1
102
RTVSPropertyOp54
 70
     1
102
RTVSPropertyOp55
 70
     1
102
RTVSPropertyOp56
 70
     1
102
RTVSPropertyOp57
 70
     1
102
RTVSPropertyOp58
 70
     1
102
RTVSPropertyOp59
 70
     1
102
RTVSPropertyOp60
 70
     1
102
RTVSPropertyOp61
 70
     1
102
RTVSPropertyOp62
 70
     1
  0
XRECORD
  5
2065
102
{ACAD_REACTORS
330
2064
102
}
330
2064
100
AcDbXrecord
280
     1
102
RTVSPost2010Prop28
280
     0
102
RTVSPost2010PropOp28
 70
     1
102
RTVSPost2010Prop29
280
     1
102
RTVSPost2010PropOp29
 70
     1
102
RTVSPost2010Prop30
280
     1
102
RTVSPost2010PropOp30
 70
     1
102
RTVSPost2010Prop31
280
     0
102
RTVSPost2010PropOp31
 70
     1
102
RTVSPost2010Prop32
280
     0
102
RTVSPost2010PropOp32
 70
     1
102
RTVSPost2010Prop33
280
     0
102
RTVSPost2010PropOp33
 70
     1
102
RTVSPost2010Prop34
280
     0
102
RTVSPost2010PropOp34
 70
     1
102
RTVSPost2010Prop35
280
     0
102
RTVSPost2010PropOp35
 70
     1
102
RTVSPost2010Prop36
280
     0
102
RTVSPost2010PropOp36
 70
     1
102
RTVSPost2010Prop37
 90
       50
102
RTVSPost2010PropOp37
 70
     1
102
RTVSPost2010Prop38
140
0.0
102
RTVSPost2010PropOp38
 70
     1
102
RTVSPost2010Prop39
140
1.0
102
RTVSPost2010PropOp39
 70
     1
102
RTVSPost2010Prop40
 90
        0
102
RTVSPost2010PropOp40
 70
     1
102
RTVSPost2010Prop41ColorIndex
 90
       18
102
RTVSPost2010Prop41ColorRGB
 90
        0
102
RTVSPost2010PropOp41
 70
     1
102
RTVSPost2010Prop42
 90
       50
102
RTVSPost2010PropOp42
 70
     1
102
RTVSPost2010Prop43
 90
        3
102
RTVSPost2010PropOp43
 70
     1
102
RTVSPost2010Prop44ColorIndex
 90
        5
102
RTVSPost2010Prop44ColorRGB
 90
      255
102
RTVSPost2010PropOp44
 70
     1
102
RTVSPost2010Prop45
280
     0
102
RTVSPost2010PropOp45
 70
     1
102
RTVSPost2010Prop46
 90
       50
102
RTVSPost2010PropOp46
 70
     1
102
RTVSPost2010Prop47
 90
       50
102
RTVSPost2010PropOp47
 70
     1
102
RTVSPost2010Prop48
 90
       50
102
RTVSPost2010PropOp48
 70
     1
102
RTVSPost2010Prop49
280
     0
102
RTVSPost2010PropOp49
 70
     1
102
RTVSPost2010Prop50
 90
       50
102
RTVSPost2010PropOp50
 70
     1
102
RTVSPost2010Prop51ColorIndex
 90
      256
102
RTVSPost2010Prop51ColorRGB
 90
-16777216
102
RTVSPost2010PropOp51
 70
     0
102
RTVSPost2010Prop52
140
1.0
102
RTVSPost2010PropOp52
 70
     0
102
RTVSPost2010Prop53
 90
        2
102
RTVSPost2010PropOp53
 70
     1
102
RTVSPost2010Prop54
  1
strokes_ogs.tif
102
RTVSPost2010PropOp54
 70
     1
102
RTVSPost2010Prop55
280
     0
102
RTVSPost2010PropOp55
 70
     1
102
RTVSPost2010Prop56
140
1.0
102
RTVSPost2010PropOp56
 70
     1
102
RTVSPost2010Prop57
140
1.0
102
RTVSPost2010PropOp57
 70
     1
102
RTVSPropertyOp0
 70
     1
102
RTVSPropertyOp1
 70
     1
102
RTVSPropertyOp2
 70
     1
102
RTVSPropertyOp3
 70
     1
102
RTVSPropertyOp4
 70
     1
102
RTVSPropertyOp5
 70
     1
102
RTVSPropertyOp6
 70
     1
102
RTVSPropertyOp7
 70
     1
102
RTVSPropertyOp8
 70
     1
102
RTVSPropertyOp9
 70
     1
102
RTVSPropertyOp10
 70
     1
102
RTVSPropertyOp11
 70
     1
102
RTVSPropertyOp12
 70
     1
102
RTVSPropertyOp13
 70
     1
102
RTVSPropertyOp14
 70
     1
102
RTVSPropertyOp15
 70
     1
102
RTVSPropertyOp16
 70
     1
102
RTVSPropertyOp17
 70
     1
102
RTVSPropertyOp18
 70
     1
102
RTVSPropertyOp19
 70
     1
102
RTVSPropertyOp20
 70
     1
102
RTVSPropertyOp21
 70
     1
102
RTVSPropertyOp22
 70
     1
102
RTVSPropertyOp23
 70
     1
102
RTVSPropertyOp24
 70
     1
102
RTVSPropertyOp25
 70
     1
102
RTVSPropertyOp26
 70
     1
102
RTVSPropertyOp27
 70
     1
102
RTVSPropertyOp28
 70
     1
102
RTVSPropertyOp29
 70
     1
102
RTVSPropertyOp30
 70
     1
102
RTVSPropertyOp31
 70
     1
102
RTVSPropertyOp32
 70
     1
102
RTVSPropertyOp33
 70
     1
102
RTVSPropertyOp34
 70
     1
102
RTVSPropertyOp35
 70
     1
102
RTVSPropertyOp36
 70
     1
102
RTVSPropertyOp37
 70
     1
102
RTVSPropertyOp38
 70
     1
102
RTVSPropertyOp39
 70
     1
102
RTVSPropertyOp40
 70
     1
102
RTVSPropertyOp41
 70
     1
102
RTVSPropertyOp42
 70
     1
102
RTVSPropertyOp43
 70
     1
102
RTVSPropertyOp44
 70
     1
102
RTVSPropertyOp45
 70
     1
102
RTVSPropertyOp46
 70
     1
102
RTVSPropertyOp47
 70
     1
102
RTVSPropertyOp48
 70
     1
102
RTVSPropertyOp49
 70
     1
102
RTVSPropertyOp50
 70
     1
102
RTVSPropertyOp51
 70
     0
102
RTVSPropertyOp52
 70
     0
102
RTVSPropertyOp53
 70
     1
102
RTVSPropertyOp54
 70
     1
102
RTVSPropertyOp55
 70
     1
102
RTVSPropertyOp56
 70
     1
102
RTVSPropertyOp57
 70
     1
102
RTVSPropertyOp58
 70
     1
102
RTVSPropertyOp59
 70
     1
102
RTVSPropertyOp60
 70
     1
102
RTVSPropertyOp61
 70
     1
102
RTVSPropertyOp62
 70
     1
  0
XRECORD
  5
2053
102
{ACAD_REACTORS
330
2052
102
}
330
2052
100
AcDbXrecord
280
     1
102
RTVSPost2010Prop28
280
     0
102
RTVSPost2010PropOp28
 70
     1
102
RTVSPost2010Prop29
280
     1
102
RTVSPost2010PropOp29
 70
     1
102
RTVSPost2010Prop30
280
     1
102
RTVSPost2010PropOp30
 70
     1
102
RTVSPost2010Prop31
280
     0
102
RTVSPost2010PropOp31
 70
     1
102
RTVSPost2010Prop32
280
     0
102
RTVSPost2010PropOp32
 70
     1
102
RTVSPost2010Prop33
280
     0
102
RTVSPost2010PropOp33
 70
     1
102
RTVSPost2010Prop34
280
     0
102
RTVSPost2010PropOp34
 70
     1
102
RTVSPost2010Prop35
280
     0
102
RTVSPost2010PropOp35
 70
     1
102
RTVSPost2010Prop36
280
     0
102
RTVSPost2010PropOp36
 70
     1
102
RTVSPost2010Prop37
 90
       50
102
RTVSPost2010PropOp37
 70
     1
102
RTVSPost2010Prop38
140
0.0
102
RTVSPost2010PropOp38
 70
     1
102
RTVSPost2010Prop39
140
1.0
102
RTVSPost2010PropOp39
 70
     1
102
RTVSPost2010Prop40
 90
        0
102
RTVSPost2010PropOp40
 70
     1
102
RTVSPost2010Prop41ColorIndex
 90
       18
102
RTVSPost2010Prop41ColorRGB
 90
        0
102
RTVSPost2010PropOp41
 70
     1
102
RTVSPost2010Prop42
 90
       50
102
RTVSPost2010PropOp42
 70
     1
102
RTVSPost2010Prop43
 90
        3
102
RTVSPost2010PropOp43
 70
     1
102
RTVSPost2010Prop44ColorIndex
 90
        5
102
RTVSPost2010Prop44ColorRGB
 90
      255
102
RTVSPost2010PropOp44
 70
     1
102
RTVSPost2010Prop45
280
     0
102
RTVSPost2010PropOp45
 70
     1
102
RTVSPost2010Prop46
 90
       50
102
RTVSPost2010PropOp46
 70
     1
102
RTVSPost2010Prop47
 90
       50
102
RTVSPost2010PropOp47
 70
     1
102
RTVSPost2010Prop48
 90
       50
102
RTVSPost2010PropOp48
 70
     1
102
RTVSPost2010Prop49
280
     0
102
RTVSPost2010PropOp49
 70
     1
102
RTVSPost2010Prop50
 90
       50
102
RTVSPost2010PropOp50
 70
     1
102
RTVSPost2010Prop51ColorIndex
 90
      256
102
RTVSPost2010Prop51ColorRGB
 90
-16777216
102
RTVSPost2010PropOp51
 70
     0
102
RTVSPost2010Prop52
140
1.0
102
RTVSPost2010PropOp52
 70
     0
102
RTVSPost2010Prop53
 90
        2
102
RTVSPost2010PropOp53
 70
     1
102
RTVSPost2010Prop54
  1
strokes_ogs.tif
102
RTVSPost2010PropOp54
 70
     1
102
RTVSPost2010Prop55
280
     0
102
RTVSPost2010PropOp55
 70
     1
102
RTVSPost2010Prop56
140
1.0
102
RTVSPost2010PropOp56
 70
     1
102
RTVSPost2010Prop57
140
1.0
102
RTVSPost2010PropOp57
 70
     1
102
RTVSPropertyOp0
 70
     1
102
RTVSPropertyOp1
 70
     1
102
RTVSPropertyOp2
 70
     1
102
RTVSPropertyOp3
 70
     1
102
RTVSPropertyOp4
 70
     1
102
RTVSPropertyOp5
 70
     1
102
RTVSPropertyOp6
 70
     1
102
RTVSPropertyOp7
 70
     1
102
RTVSPropertyOp8
 70
     1
102
RTVSPropertyOp9
 70
     1
102
RTVSPropertyOp10
 70
     1
102
RTVSPropertyOp11
 70
     1
102
RTVSPropertyOp12
 70
     1
102
RTVSPropertyOp13
 70
     1
102
RTVSPropertyOp14
 70
     1
102
RTVSPropertyOp15
 70
     1
102
RTVSPropertyOp16
 70
     1
102
RTVSPropertyOp17
 70
     1
102
RTVSPropertyOp18
 70
     1
102
RTVSPropertyOp19
 70
     1
102
RTVSPropertyOp20
 70
     1
102
RTVSPropertyOp21
 70
     1
102
RTVSPropertyOp22
 70
     1
102
RTVSPropertyOp23
 70
     1
102
RTVSPropertyOp24
 70
     1
102
RTVSPropertyOp25
 70
     1
102
RTVSPropertyOp26
 70
     1
102
RTVSPropertyOp27
 70
     1
102
RTVSPropertyOp28
 70
     1
102
RTVSPropertyOp29
 70
     1
102
RTVSPropertyOp30
 70
     1
102
RTVSPropertyOp31
 70
     1
102
RTVSPropertyOp32
 70
     1
102
RTVSPropertyOp33
 70
     1
102
RTVSPropertyOp34
 70
     1
102
RTVSPropertyOp35
 70
     1
102
RTVSPropertyOp36
 70
     1
102
RTVSPropertyOp37
 70
     1
102
RTVSPropertyOp38
 70
     1
102
RTVSPropertyOp39
 70
     1
102
RTVSPropertyOp40
 70
     1
102
RTVSPropertyOp41
 70
     1
102
RTVSPropertyOp42
 70
     1
102
RTVSPropertyOp43
 70
     1
102
RTVSPropertyOp44
 70
     1
102
RTVSPropertyOp45
 70
     1
102
RTVSPropertyOp46
 70
     1
102
RTVSPropertyOp47
 70
     1
102
RTVSPropertyOp48
 70
     1
102
RTVSPropertyOp49
 70
     1
102
RTVSPropertyOp50
 70
     1
102
RTVSPropertyOp51
 70
     0
102
RTVSPropertyOp52
 70
     0
102
RTVSPropertyOp53
 70
     1
102
RTVSPropertyOp54
 70
     1
102
RTVSPropertyOp55
 70
     1
102
RTVSPropertyOp56
 70
     1
102
RTVSPropertyOp57
 70
     1
102
RTVSPropertyOp58
 70
     1
102
RTVSPropertyOp59
 70
     1
102
RTVSPropertyOp60
 70
     1
102
RTVSPropertyOp61
 70
     1
102
RTVSPropertyOp62
 70
     1
  0
XRECORD
  5
2047
102
{ACAD_REACTORS
330
2046
102
}
330
2046
100
AcDbXrecord
280
     1
102
RTVSPost2010Prop28
280
     0
102
RTVSPost2010PropOp28
 70
     1
102
RTVSPost2010Prop29
280
     1
102
RTVSPost2010PropOp29
 70
     1
102
RTVSPost2010Prop30
280
     1
102
RTVSPost2010PropOp30
 70
     1
102
RTVSPost2010Prop31
280
     0
102
RTVSPost2010PropOp31
 70
     1
102
RTVSPost2010Prop32
280
     0
102
RTVSPost2010PropOp32
 70
     1
102
RTVSPost2010Prop33
280
     0
102
RTVSPost2010PropOp33
 70
     1
102
RTVSPost2010Prop34
280
     0
102
RTVSPost2010PropOp34
 70
     1
102
RTVSPost2010Prop35
280
     0
102
RTVSPost2010PropOp35
 70
     1
102
RTVSPost2010Prop36
280
     0
102
RTVSPost2010PropOp36
 70
     1
102
RTVSPost2010Prop37
 90
       50
102
RTVSPost2010PropOp37
 70
     1
102
RTVSPost2010Prop38
140
0.0
102
RTVSPost2010PropOp38
 70
     1
102
RTVSPost2010Prop39
140
1.0
102
RTVSPost2010PropOp39
 70
     1
102
RTVSPost2010Prop40
 90
        0
102
RTVSPost2010PropOp40
 70
     1
102
RTVSPost2010Prop41ColorIndex
 90
       18
102
RTVSPost2010Prop41ColorRGB
 90
        0
102
RTVSPost2010PropOp41
 70
     1
102
RTVSPost2010Prop42
 90
       50
102
RTVSPost2010PropOp42
 70
     1
102
RTVSPost2010Prop43
 90
        3
102
RTVSPost2010PropOp43
 70
     1
102
RTVSPost2010Prop44ColorIndex
 90
        5
102
RTVSPost2010Prop44ColorRGB
 90
      255
102
RTVSPost2010PropOp44
 70
     1
102
RTVSPost2010Prop45
280
     0
102
RTVSPost2010PropOp45
 70
     1
102
RTVSPost2010Prop46
 90
       50
102
RTVSPost2010PropOp46
 70
     1
102
RTVSPost2010Prop47
 90
       50
102
RTVSPost2010PropOp47
 70
     1
102
RTVSPost2010Prop48
 90
       50
102
RTVSPost2010PropOp48
 70
     1
102
RTVSPost2010Prop49
280
     0
102
RTVSPost2010PropOp49
 70
     1
102
RTVSPost2010Prop50
 90
       50
102
RTVSPost2010PropOp50
 70
     1
102
RTVSPost2010Prop51ColorIndex
 90
      256
102
RTVSPost2010Prop51ColorRGB
 90
-16777216
102
RTVSPost2010PropOp51
 70
     0
102
RTVSPost2010Prop52
140
1.0
102
RTVSPost2010PropOp52
 70
     0
102
RTVSPost2010Prop53
 90
        2
102
RTVSPost2010PropOp53
 70
     1
102
RTVSPost2010Prop54
  1
strokes_ogs.tif
102
RTVSPost2010PropOp54
 70
     1
102
RTVSPost2010Prop55
280
     0
102
RTVSPost2010PropOp55
 70
     1
102
RTVSPost2010Prop56
140
1.0
102
RTVSPost2010PropOp56
 70
     1
102
RTVSPost2010Prop57
140
1.0
102
RTVSPost2010PropOp57
 70
     1
102
RTVSPropertyOp0
 70
     1
102
RTVSPropertyOp1
 70
     1
102
RTVSPropertyOp2
 70
     1
102
RTVSPropertyOp3
 70
     1
102
RTVSPropertyOp4
 70
     1
102
RTVSPropertyOp5
 70
     1
102
RTVSPropertyOp6
 70
     1
102
RTVSPropertyOp7
 70
     1
102
RTVSPropertyOp8
 70
     1
102
RTVSPropertyOp9
 70
     1
102
RTVSPropertyOp10
 70
     1
102
RTVSPropertyOp11
 70
     1
102
RTVSPropertyOp12
 70
     1
102
RTVSPropertyOp13
 70
     1
102
RTVSPropertyOp14
 70
     1
102
RTVSPropertyOp15
 70
     1
102
RTVSPropertyOp16
 70
     1
102
RTVSPropertyOp17
 70
     1
102
RTVSPropertyOp18
 70
     1
102
RTVSPropertyOp19
 70
     1
102
RTVSPropertyOp20
 70
     1
102
RTVSPropertyOp21
 70
     1
102
RTVSPropertyOp22
 70
     1
102
RTVSPropertyOp23
 70
     1
102
RTVSPropertyOp24
 70
     1
102
RTVSPropertyOp25
 70
     1
102
RTVSPropertyOp26
 70
     1
102
RTVSPropertyOp27
 70
     1
102
RTVSPropertyOp28
 70
     1
102
RTVSPropertyOp29
 70
     1
102
RTVSPropertyOp30
 70
     1
102
RTVSPropertyOp31
 70
     1
102
RTVSPropertyOp32
 70
     1
102
RTVSPropertyOp33
 70
     1
102
RTVSPropertyOp34
 70
     1
102
RTVSPropertyOp35
 70
     1
102
RTVSPropertyOp36
 70
     1
102
RTVSPropertyOp37
 70
     1
102
RTVSPropertyOp38
 70
     1
102
RTVSPropertyOp39
 70
     1
102
RTVSPropertyOp40
 70
     1
102
RTVSPropertyOp41
 70
     1
102
RTVSPropertyOp42
 70
     1
102
RTVSPropertyOp43
 70
     1
102
RTVSPropertyOp44
 70
     1
102
RTVSPropertyOp45
 70
     1
102
RTVSPropertyOp46
 70
     1
102
RTVSPropertyOp47
 70
     1
102
RTVSPropertyOp48
 70
     1
102
RTVSPropertyOp49
 70
     1
102
RTVSPropertyOp50
 70
     1
102
RTVSPropertyOp51
 70
     0
102
RTVSPropertyOp52
 70
     0
102
RTVSPropertyOp53
 70
     1
102
RTVSPropertyOp54
 70
     1
102
RTVSPropertyOp55
 70
     1
102
RTVSPropertyOp56
 70
     1
102
RTVSPropertyOp57
 70
     1
102
RTVSPropertyOp58
 70
     1
102
RTVSPropertyOp59
 70
     1
102
RTVSPropertyOp60
 70
     1
102
RTVSPropertyOp61
 70
     1
102
RTVSPropertyOp62
 70
     1
  0
XRECORD
  5
2067
102
{ACAD_REACTORS
330
2066
102
}
330
2066
100
AcDbXrecord
280
     1
102
RTVSPost2010Prop28
280
     0
102
RTVSPost2010PropOp28
 70
     1
102
RTVSPost2010Prop29
280
     1
102
RTVSPost2010PropOp29
 70
     1
102
RTVSPost2010Prop30
280
     1
102
RTVSPost2010PropOp30
 70
     1
102
RTVSPost2010Prop31
280
     0
102
RTVSPost2010PropOp31
 70
     1
102
RTVSPost2010Prop32
280
     0
102
RTVSPost2010PropOp32
 70
     1
102
RTVSPost2010Prop33
280
     0
102
RTVSPost2010PropOp33
 70
     1
102
RTVSPost2010Prop34
280
     0
102
RTVSPost2010PropOp34
 70
     1
102
RTVSPost2010Prop35
280
     0
102
RTVSPost2010PropOp35
 70
     1
102
RTVSPost2010Prop36
280
     0
102
RTVSPost2010PropOp36
 70
     1
102
RTVSPost2010Prop37
 90
       50
102
RTVSPost2010PropOp37
 70
     1
102
RTVSPost2010Prop38
140
0.0
102
RTVSPost2010PropOp38
 70
     1
102
RTVSPost2010Prop39
140
1.0
102
RTVSPost2010PropOp39
 70
     1
102
RTVSPost2010Prop40
 90
        0
102
RTVSPost2010PropOp40
 70
     1
102
RTVSPost2010Prop41ColorIndex
 90
       18
102
RTVSPost2010Prop41ColorRGB
 90
        0
102
RTVSPost2010PropOp41
 70
     1
102
RTVSPost2010Prop42
 90
       50
102
RTVSPost2010PropOp42
 70
     1
102
RTVSPost2010Prop43
 90
        3
102
RTVSPost2010PropOp43
 70
     1
102
RTVSPost2010Prop44ColorIndex
 90
        5
102
RTVSPost2010Prop44ColorRGB
 90
      255
102
RTVSPost2010PropOp44
 70
     1
102
RTVSPost2010Prop45
280
     0
102
RTVSPost2010PropOp45
 70
     1
102
RTVSPost2010Prop46
 90
       50
102
RTVSPost2010PropOp46
 70
     1
102
RTVSPost2010Prop47
 90
       50
102
RTVSPost2010PropOp47
 70
     1
102
RTVSPost2010Prop48
 90
       50
102
RTVSPost2010PropOp48
 70
     1
102
RTVSPost2010Prop49
280
     0
102
RTVSPost2010PropOp49
 70
     1
102
RTVSPost2010Prop50
 90
       50
102
RTVSPost2010PropOp50
 70
     1
102
RTVSPost2010Prop51ColorIndex
 90
      256
102
RTVSPost2010Prop51ColorRGB
 90
-16777216
102
RTVSPost2010PropOp51
 70
     0
102
RTVSPost2010Prop52
140
1.0
102
RTVSPost2010PropOp52
 70
     0
102
RTVSPost2010Prop53
 90
        2
102
RTVSPost2010PropOp53
 70
     1
102
RTVSPost2010Prop54
  1
strokes_ogs.tif
102
RTVSPost2010PropOp54
 70
     1
102
RTVSPost2010Prop55
280
     0
102
RTVSPost2010PropOp55
 70
     1
102
RTVSPost2010Prop56
140
1.0
102
RTVSPost2010PropOp56
 70
     1
102
RTVSPost2010Prop57
140
1.0
102
RTVSPost2010PropOp57
 70
     1
102
RTVSPropertyOp0
 70
     1
102
RTVSPropertyOp1
 70
     1
102
RTVSPropertyOp2
 70
     1
102
RTVSPropertyOp3
 70
     1
102
RTVSPropertyOp4
 70
     1
102
RTVSPropertyOp5
 70
     1
102
RTVSPropertyOp6
 70
     1
102
RTVSPropertyOp7
 70
     1
102
RTVSPropertyOp8
 70
     1
102
RTVSPropertyOp9
 70
     1
102
RTVSPropertyOp10
 70
     1
102
RTVSPropertyOp11
 70
     1
102
RTVSPropertyOp12
 70
     1
102
RTVSPropertyOp13
 70
     1
102
RTVSPropertyOp14
 70
     1
102
RTVSPropertyOp15
 70
     1
102
RTVSPropertyOp16
 70
     1
102
RTVSPropertyOp17
 70
     1
102
RTVSPropertyOp18
 70
     1
102
RTVSPropertyOp19
 70
     1
102
RTVSPropertyOp20
 70
     1
102
RTVSPropertyOp21
 70
     1
102
RTVSPropertyOp22
 70
     1
102
RTVSPropertyOp23
 70
     1
102
RTVSPropertyOp24
 70
     1
102
RTVSPropertyOp25
 70
     1
102
RTVSPropertyOp26
 70
     1
102
RTVSPropertyOp27
 70
     1
102
RTVSPropertyOp28
 70
     1
102
RTVSPropertyOp29
 70
     1
102
RTVSPropertyOp30
 70
     1
102
RTVSPropertyOp31
 70
     1
102
RTVSPropertyOp32
 70
     1
102
RTVSPropertyOp33
 70
     1
102
RTVSPropertyOp34
 70
     1
102
RTVSPropertyOp35
 70
     1
102
RTVSPropertyOp36
 70
     1
102
RTVSPropertyOp37
 70
     1
102
RTVSPropertyOp38
 70
     1
102
RTVSPropertyOp39
 70
     1
102
RTVSPropertyOp40
 70
     1
102
RTVSPropertyOp41
 70
     1
102
RTVSPropertyOp42
 70
     1
102
RTVSPropertyOp43
 70
     1
102
RTVSPropertyOp44
 70
     1
102
RTVSPropertyOp45
 70
     1
102
RTVSPropertyOp46
 70
     1
102
RTVSPropertyOp47
 70
     1
102
RTVSPropertyOp48
 70
     1
102
RTVSPropertyOp49
 70
     1
102
RTVSPropertyOp50
 70
     1
102
RTVSPropertyOp51
 70
     0
102
RTVSPropertyOp52
 70
     0
102
RTVSPropertyOp53
 70
     1
102
RTVSPropertyOp54
 70
     1
102
RTVSPropertyOp55
 70
     1
102
RTVSPropertyOp56
 70
     1
102
RTVSPropertyOp57
 70
     1
102
RTVSPropertyOp58
 70
     1
102
RTVSPropertyOp59
 70
     1
102
RTVSPropertyOp60
 70
     1
102
RTVSPropertyOp61
 70
     1
102
RTVSPropertyOp62
 70
     1
  0
ENDSEC
  0
EOF
